MUZBANK



A Most Complete Bank Of Music Information

МУЗЫКАЛЬНО-ИНФОРМАЦИОННЫЙ БАНК

Поиск по сайту







    DDiecast • Labled Unity (аккорды и текст - chords & lyrics)


    228

    Print

    Видео «Labled Unity (Diecast)»

    Видео клипы к песне подбираются автоматически сайтом youtube. Возможны некоторые несоответствия клипов песне.

    ↑ Спрятать рекламу ↑



    Download


     
    
    
    Band: Diecast
    Song: Labled Unity
    
    Tabber: John Cukras
    Email: riffreaper@yahoo.com
    
    Tuning: C G C F A D
    
    Riff 1:
    D-----------------------------
    A-----------------------------
    F-----------------------------
    C---11/9-11/9-----------------
    G-0--9/7--9/7---------------0-
    C-0-----------00-00-00-0000-0-
    pm            .. .. .. ....
    
    Riff 2:
    D-----------------------------
    A-----------------------------
    F-----------------------------
    C-----9/11/9-7-5-7-7/9--------
    G-----7/9/7--5-3-5-5/7--------
    C-00--------------------------
    pm..
    
    Riff 3:
    D----------------------------------
    A----------------------------------
    F----------------------------------
    C----------------------------------
    G-0-1---1-0000000-3-5-3----1----2--
    C-0-1---1-0000000-3-5-3-00-1-00-2--
    pm        .......       ..   ..
    
    Riff 4:
    D-------------------
    A-------------------
    F-------------------
    C-5-7-5-------------
    G-3-5-3----1----2---
    C-------00-1-00-2---
    pm      ..   ..
     

    Тональность:

    Нет текста!



    Назад
    Рекомендуем посмотреть другие песни исполнителя «Diecast»:

    • Комментарии Facebook ()
    • Комментарии ВКонтакте



    Добавить в Избранное Браузера
    Сохранить здесь Очистить


    x

    0


    +
    -

    +
    -

    -

    Авторизация





    Зарегистрироваться

    M

    Дата и время

    • 11:09:24
       

    Социальные ссылки


    Наши приложения

    • Muzbank App Play Market
    • Muzbank Amazon App