MUZBANK



A Most Complete Bank Of Music Information

МУЗЫКАЛЬНО-ИНФОРМАЦИОННЫЙ БАНК

Поиск по сайту







    DDimmu Borgir • For All Tid (аккорды и текст - chords & lyrics)


    187

    Print

    Видео «For All Tid (Dimmu Borgir)»

    Видео клипы к песне подбираются автоматически сайтом youtube. Возможны некоторые несоответствия клипов песне.

    ↑ Спрятать рекламу ↑



    Download



     
    
    
    Normal tuning (EADGBe)
    
    Solo at (0:44)
    
    Riff 2 at (1:38)
    Riff 3 at (1:57)
    Riff 4 at (2:07)
    Riff 7 at (3:15)
    Riff 8 at (3:25)
    
    Keyboard intro 
    
    (0:18) Clean guitar enters:
      Rhy.Fig.1:
    e-0-------|
    B|--------0-1---1-----|
    G|o-----2---------2--o|
    D|o---2--------------o|
    A|--0-----------------|
    E---------|
    
      (0:44) Guitar solo, w/Rhy.Fig.1 (Note: the timing for this solo is not correct - this 
    solo uses a lot of triplets)
    e-------------------------------------------------------------------
    B-------------------------------------------------------------------
    G---9---------------------------9~---9-10-10--97-7---9-10-9h10p9---
    D|-7~-9-10-9-10---10-9-7~-----7~--7/9-10/12-------------------------------------
    A--------------10---------------------------------------------------
    E-------------------------------------------------------------------
    
    
    -----------------------------------------------------------------------------------------
    ---8-------------------------------------------------------------------------------------
    -7---10-9-10-9-----------------------7---------------------------9-10-9-7-9-10-9h10p9~---
    ---------------10-9-10-7~--9-10-9-10---10-9-7~---------------7~--------------------------
    -----------------------------------------------8-7~-7/8-10-8-----------------------------
    -----------------------------------------------------------------------------------------
    
      ----------------------------|
      ---8------------------------|
      -7---10-9-10-9--------------|
      ---------------10-9-10-7~---|
      ----------------------------|
      ----------------------------|
    
    
    (1:38) Riff 2:
    e----------------|
    B----------------|
    G|o-------------------------o|
    D|o-7-7-7-7-7-7-------------o|
    A|--5-5-5-5-5-5-7-7-7-7-7-7--|
    E---5-5-5-5-5-5--|
    
    
    
    (1:57) Riff 3:
    e----------------|
    B----------------|
    G|o-------------------------o|
    D|o-------------------5-5-5-o|
    A|--2-2-2-2-2-2-5-5-5-3-3-3--|
    E|--0-0-0-0-0-0-3-3-3--------|
    
    
    (2:07) Riff 4 (triplet feel) w/vocals
    e-----------------|
    B-----------------|
    G|o--------------------------o|
    D|o-2--2-10--10-7--7-109/10-o|
    A|--0--0--8---8-5--5--87/-8--|
    E-----------------|
    
    
    (2:27) Riff 5:
    --------------------------------------
    --------------------------------------
    --------------------------------------
    --------------------------------------
    |-777-101010-999-101010--------101010-101010-999--
    ------------888888--------------------
    
    
            ------------------------------------------------|
            ------------------------------------------------|
            ------------------------------------------------|
            ------------------------------------------------|
            -777-101010-999-101010-121212121212-101010-999--|
            ------------------------------------------------|
    
    
    Riff 6:
    ------------------------------------------------|
    ------------------------------------------------|
    ------------------------------------------------|
    |-222-555-444-555-777777777777--222-555-444-555-777-444444--|
    |-000-333-222-333-555555555555--000-333-222-333-555-222222--|
    ------------------------------------------------|
    
    
    (3:15) Riff 7 Gtr.1 (dist.):                       2x
    -----------------------------------------|
    -----------------------------------------|
    |o---------------------------------------------------|
    |o-2-2-2-2-2-2-2-2-2-2-2-2--------------------------o|
    |--0-0-0-0-0-0-0-0-0-0-0-0-2-2-2-2-2-2-2-2-2-2-2-2--o|
    ---------------0-0-0-0-0-0-0-0-0-0-0-0---|
    |  . . . . . . . . . . . . . . . . . . . . . . . .   |
    |  Gtr.2 (clean)                                     |
    -----------------------------------------|
    -----------------------------------------|
    |o-----2-----2-----2-----2--------------------------o|
    |o---2-----2-----2-----2-------2-----2-----2-----2--o|
    |--0-----0-----0-----0-------2-----2-----2-----2-----|
    ---------------0-----0-----0-----0-------|
    
    
    (3:25) Riff 8 (Gtr.1):                             2x
    -----------------------------------------|
    -----------------------------------------|
    |o-------------------------------------------------o-|
    |o-------------------------------------------------o-|
    |--3-3-3-3-3-3-3-3-3-3-3-3-2-2-2-2-2-2-3-----5-------|
    |--1-1-1-1-1-1-1-1-1-1-1-1-0-0-0-0-0-0-1-----3-------|
    |  . . . . . . . . . . . . . . . . . .               |
    | Gtr.2                                              |
    -----------------------------------------|
    -----------------------------------------|
    |o-----0-----0-----0-----0-----0-----0-----0-----0--o|
    |o---7-----7-----7-----7-----0-----0-----0-----0----o|
    |--8-----8-----8-----8-----7-----7-----7-----7-------|
    -----------------------------------------|
    
    
    (3:55) Riff 4, play 8x
    
    (4:55) Rhy.Fig.1
     - Fade out
    
    Lyrics
    
    
    Hver en tare er frosset,
    var sjel er lenket,
    vart hat er blodig.
    
    All glede er svunnet,
    all latter er forsvunnet,
    alt liv skal ende i dod.
    
    I et kalt og ode landskap,
    skal den sorte horde tre frem,
    var herre skal stige
    opp for all tid, reise sitt rike igjen.
    
    Var kamp skal belonnes,
    vare nav skal prises,
    vare sinn skal dra den grene,
    og hans kj?rlighet skal evig ga tapt.
    All moral skal forkastes,
    du vil men du dor av skam.
    
    Na er tiden kommet,
    ja knus de godes ord,
    la oss for alltid bli herskere pa denne jord.
     

    Тональность:

    Нет текста!



    Назад
    Рекомендуем посмотреть другие песни исполнителя «Dimmu Borgir»:

    • Комментарии Facebook ()
    • Комментарии ВКонтакте



    Добавить в Избранное Браузера
    Сохранить здесь Очистить


    x

    0


    +
    -

    +
    -

    -

    Авторизация





    Зарегистрироваться

    M

    Дата и время

    • 10:07:29
       

    Социальные ссылки


    Наши приложения

    • Muzbank App Play Market
    • Muzbank Amazon App