MUZBANK



A Most Complete Bank Of Music Information

МУЗЫКАЛЬНО-ИНФОРМАЦИОННЫЙ БАНК

Поиск по сайту







    DDimmu Borgir • Glittertind (аккорды и текст - chords & lyrics)


    251

    Print

    Видео «Glittertind (Dimmu Borgir)»

    Видео клипы к песне подбираются автоматически сайтом youtube. Возможны некоторые несоответствия клипов песне.

    ↑ Спрятать рекламу ↑



    Download


     
    
    
    DIMMU BORGIR - GLITTERTIND
    		              (INSTRUMENTAL)
    
    From the album: For All Tid
    
    Tabbed by: Arto Osterman (thornofsin@hotmail.com)
    
    Tuning: Standard
    
    Marking:
    
    Let ring:  l
    Palm mute: ......
    
    
    Riff 1:
    |----------------------------------------|
    |----------------------------------------|
    |----------------------------------------|
    |-2-22-2--2-22-2-22--7-77-7--10101010-9--|
    |-0-00-0--0-00-0-00--5-55-5--8-8-8-8--7--|
    |----------------------------------------|
                                          l
    
    Riff 2:
    |------------------------------------------------|
    |------------------------------------------------|
    |------------------------------------------------|
    |-----------------77777777--4--55555555-4444-5-4-|
    |-22222222--4--5--55555555--2--33333333-2222-3-2-|
    |-00000000--2--3---------------------------------|
    
    
    Riff 3:
    |----------------------------------------------------------------|
    |----------------------------------------------------------------|
    |----------------------------------------------------------------|
    |-66666666-77777777-99999999-1010101010101010--------------------|
    |-44444444-55555555-77777777-8-8-8-8-8-8-8-8--33333333-55555555--|
    |---------------------------------------------11111111-33333333--|
    
    
    Riff 4:
    |---------------------|
    |---------------------|
    |---------------------|
    |-7-7--7--------------|
    |-5-5--5---3-3--3/5---|
    |----------1-1--1/3---|
    
    
    SOLO 1:
    |--------------------------------|
    |--------------------------------|
    |--------------------------------|
    |------------5-------------------|
    |-5--5-5-7-8---8-7-8-7-----------|
    |--------------------------------|
    
    
    SOLO 2:
    |--------------------------------|
    |--------------------------------|
    |-------------7------------------|
    |-7--7-7-9-10---10-9-10-9--------|
    |--------------------------------|
    |--------------------------------|
    
    
    Riff 5:
    |--------------------------------|
    |--------------------------------|
    |--------------------------------|
    |---2---------2------------------|
    |-0---0--0--0---0----3----3--2---|
    |------------------1---1---------|
    
    
    SOLO 3:
    |--------------------------------|
    |--------------------------------|
    |--------------------------------|
    |--------------------------------|
    |-0--2-3-5-3-2-3-2-0---0---0-----|
    |--------------------3---3-------|
    
    
    SOLO 4:
    |------------|
    |------------|
    |------------|
    |------------|
    |-7--8-10-8--|
    |------------|
    
    
    
    SONG STRUCTURE:
    
    RIFF 1:         (10x)
    RIFF 2:         (4x)
    RIFF 3:         (4x)
    RIFF 4:         (12x) on the 4th time play solo1  4 times
                          and the solo2  4 times
    RIFF 1:         (10x)
    RIFF 2:         (4x)
    RIFF 3:         (4x)
    RIFF 4:         (12x) on the 4th time play solo1  4 times
                          and then solo2  4 times
    
    RIFF 5:         (20x) on the 8th time play solo3  2 times
                          and then solo4  4 times
    
    RIFF 2:         (6x)
     

    Тональность:

    Нет текста!



    Назад
    Рекомендуем посмотреть другие песни исполнителя «Dimmu Borgir»:

    • Комментарии Facebook ()
    • Комментарии ВКонтакте



    Добавить в Избранное Браузера
    Сохранить здесь Очистить


    x

    0


    +
    -

    +
    -

    -

    Авторизация





    Зарегистрироваться

    M

    Дата и время

    • 17:23:58
       

    Социальные ссылки


    Наши приложения

    • Muzbank App Play Market
    • Muzbank Amazon App