MUZBANK



A Most Complete Bank Of Music Information

МУЗЫКАЛЬНО-ИНФОРМАЦИОННЫЙ БАНК

Поиск по сайту







    DDimmu Borgir • Hunnerkongen (аккорды и текст - chords & lyrics)


    235

    Print

    Видео «Hunnerkongen (Dimmu Borgir)»

    Видео клипы к песне подбираются автоматически сайтом youtube. Возможны некоторые несоответствия клипов песне.

    ↑ Спрятать рекламу ↑



    Download


     
    
    
    =========================================================================
    ARTIST: Dimmu Borgir
    SONG: Hunnerkongen
    TRANSCRIBED BY: Thomas Abraham
    
    NOTE: This song was transcribed with normal tuning.
    
    
    
    RIFF A
    |----------------------|
    |----------------------|
    |-----------2----4/34-| REPEAT 6x  
    |-3----5----0000-2/12-| 
    |-1111-3333------------|
    |----------------------|
    
    RIFF B
    |--------------------------------------|
    |--------------------------------------|
    |--------------------------------------| REPEAT 4x
    |--------------------------------------|
    |-22222222222222-00-33333333-0000-1111-|
    |--------------------------------------|
    	  14x			8x
    
    PLAY RIFF A 4x
    
    PLAY RIFF B 4x
    
    RIFF C
    |-----------------------------------------|
    |-----------------------------------------|
    |-----------------------------------------| REPEAT 4x
    |-9----9----9----9----7----7----7----7----|
    |-7-77-7-77-7-77-7-77-5-55-5-55-5-55-5-55-|
    |-----------------------------------------|
    
    RIFF D
    |------------------------------------|
    |------------------------------------|
    |------------------------------------| REPEAT 4x
    |-9----9----9----9----7----7-----7-9-|
    |-7-77-7-77-7-77-7-77-5-55-5-55--5-7-|
    |------------------------------------|
    
    RIFF E
    |-----------------------------------------|
    |-----------------------------------------|
    |-----------------------------6-4-3-------| REPEAT 4x
    |-22222222-0000-2222-33333333-------6-4-3-|
    |-----------------------------------------|
    |-----------------------------------------|
         8x			8x
    
    
    
    RIFF F
    |-----------|
    |-----------|
    |-----------| REPEAT 4x
    |-2-4-2-4-5-|
    |-0-2-0-2-3-|
    |-----------|
    
    
    PLAY RIFF E 8x
    
    
    RIFF G
    |-------|
    |-------|
    |-------|
    |-2--22-|
    |-0--00-|
    |-------|
     

    Тональность:

    Нет текста!



    Назад
    Рекомендуем посмотреть другие песни исполнителя «Dimmu Borgir»:

    • Комментарии Facebook ()
    • Комментарии ВКонтакте



    Добавить в Избранное Браузера
    Сохранить здесь Очистить


    x

    0


    +
    -

    +
    -

    -

    Авторизация





    Зарегистрироваться

    M

    Дата и время

    • 15:13:42
       

    Социальные ссылки


    Наши приложения

    • Muzbank App Play Market
    • Muzbank Amazon App