MUZBANK



A Most Complete Bank Of Music Information

МУЗЫКАЛЬНО-ИНФОРМАЦИОННЫЙ БАНК

Поиск по сайту







    DDimmu Borgir • Mourning Palace (аккорды и текст - chords & lyrics)


    204

    Print

    Видео «Mourning Palace (Dimmu Borgir)»

    Видео клипы к песне подбираются автоматически сайтом youtube. Возможны некоторые несоответствия клипов песне.

    ↑ Спрятать рекламу ↑



    Download



     
    
    
    DIMMU BORGIR - MOURNING PALACE
    From the Album ENTHRONE DARKNESS TRIUMPHANT
                            
    
    Transcribed by: Saul antonio           Cuirax@msn.com
    
    .  - palm mute                  /  - slide up to
      - slide down to              ~  - vibrato
    h  - hammer on                  b  - bend
    p  - pull off                   Suffixes for bend
    ph - pinch harmonic             f - full bend    h - half bend
    *  - see comment                r - release      t - tap bend
    X  - percussion mute            ~ - vibrato bend
    @  - slight palm mute           () - ghost note, sustained note
    
    Tune Gtr to E
    
    MOURNING PALACE
    
    Intro (teclado)
    
    Riff A
    |-----------|
    |-----------|
    |-----------|Gtrs
    |-4-7-6-9---|I&II
    |-2-5-4-7---|
    |-----------|
        . .
    
    
    *Riff B                                      6tx
    |-----------------------------------------------|
    |-----------------------------------------------|
    |-----------------------------------------------|Gtrs
    |-------------------------------------4-7-6-9---|I&II
    |-4-----4-----4-----4-----4-----4-----2-5-4-7---|
    |-2-222-2-222-2-222-2-222-2-222-2-222-----------|
    
    
    *Last time pm chords D5 & C#
    
    
    Riff C
    |-----------------------------------------------------|
    |-----------------------------------------------------|
    |-----------------------------------------------------|
    |-------------------------9-----9----8----------------|
    |-4-----4-----4-----4-----7-777-7-77-6----9-----9-----|
    |-2-222-2-222-2-222-2-222-----------------7-777-7-777-|
    |   ...   ...   ...   ...   ...   ..        ...   ...
    |
    |
    |-------------------------------------------------|
    |-------------------------------------------------|
    |-------------------------------------------------|
    |-------------------------9-----------------------|
    |-4-----4-----4-----4-----7-777-9-7-6-------------|
    |-2-222-2-222-2-222-2-222-------------7-777-7-5-4-|
    |   ...   ...   ...   ...   ...         ... . . .
    |
    |
    |-----------------------------------------------------|
    |-----------------------------------------------------|
    |-----------------------------------------------------|
    |-------------------------9-----9----8----------------|
    |-4-----4-----4-----4-----7-777-7-77-6----9-----9-----|
    |-2-222-2-222-2-222-2-222-----------------7-777-7-777-|
    |   ...   ...   ...   ...   ...   ..        ...   ...
    |
    |                                                2tx
    |---------------------------------------------------|
    |---------------------------------------------------|
    |---------------------------------------------11~---|
    |-------------------------9-------------------------|
    |-4-----4-----4-----4-----7-777-9-7-6-------9-------|
    |-2-222-2-222-2-222-2-222-------------7-777---------|
        ...   ...   ...   ...   ...         ...
    
    
    Riff B 4tx
    Riff C 2tx
    
    
    Fill
    
    
    *Riff D                                            6tx
    |-----------------------------------------------------|
    |-----------------------------------------------------|
    |-----------------------------------------------------|
    |-----------------------5-------4-------5------4------|
    |-3---2---2-5-2-3---2---7-------7-------7------7------|
    |-5---5---5-5-5-5---5---------------------------------|
    
    
    *Sounds like chords are tremelo picked.
    
    
    Riff E
    |-----------------------------------------------------------------------|
    |-----------------------------------------------------------------------|
    |-----------------------------------------------------------------------|
    |-----9-----8-----9-----8-----9-----8-5---7-8-------9-----8-----9-----8-|
    |-------------------------------------3---5-6---------------------------|
    |-0-0---0-0---0-0---0-0---0-0---0-0-------------0-0---0-0---0-0---0-0---|
    | . .   . .   . .   . .   . .   . .             . .   . .   . .   . .
    |
    |
    |                  4tx
    |---------------------|
    |---------------------|
    |---------------------|
    |-----9-----8-5---8-7-|
    |-------------3---6-5-|
    |-0-0---0-0-----------|
      . .   . .
    
    
    Riff E.1                                                     2tx
    |---------------------------------------------------------------|
    |---------------------------------------------------------------|
    |---------------------------------------------------------------|Gtrs
    |-----9-----8-----9-----5---7-8-------9-----8-----9-----5---8-7-|I&II
    |-----------------------3---5-6-------------------------3---6-5-|
    |-0-0---0-0---0-0---0-0-----------0-0---0-0---0-0---0-0---------|
      . .   . .   . .   . .           . .   . .   . .   . .
    
    
    Riff D 6tx
    
    
    Riff F
    |-----------------------------------------------------------------------|
    |-----------------------------------------------------------------------|
    |-----------------------------------------------------------------------|
    |-----------4-4-4-4-4-----------5-5-5-5-5-4-4-4-4-4-2-2-2-2-2-----------|
    |-2-2-2-2-2-----------2-2-2-2-2-----------------------------------------|
    |-------------------------------------------------------------3-3-3-3-3-|
    |
    |
    |                                          8tx
    |---------------------------------------------|
    |---------------------------------------------|
    |---------------------------------------------|
    |---------------------------------5-5-5-4-4-4-|
    |-5-5-5-5-5-----------------2-2-2-------------|
    |-----------3-3-3-3-3-0-0-0-------------------|
    
    
    Riff G                                                         4tx
    |-----------------------------------------------------------------|
    |-----------------------------------------------------------------|
    |-----------------------------4-----------------------------------|Gtrs
    |-----4---4h5-4p2-----4---4h5---------4---4h5-4p2-------------5-4-|I&II
    |-2-----2---------2-----2---------2-----2-------------5p4-2-4-----|
    |-------------------------------------------------3---------------|
            .               .               .                 . . . .
    
    
    Riff F 4tx
    
    
    Ending
    |------|
    |------|
    |------|
    |------|
    |-8-9-|
    |-6-7-|
     

    Тональность:

    Нет текста!



    Назад
    Рекомендуем посмотреть другие песни исполнителя «Dimmu Borgir»:

    • Комментарии Facebook ()
    • Комментарии ВКонтакте



    Добавить в Избранное Браузера
    Сохранить здесь Очистить


    x

    0


    +
    -

    +
    -

    -

    Авторизация





    Зарегистрироваться

    M

    Дата и время

    • 21:34:16
       

    Социальные ссылки


    Наши приложения

    • Muzbank App Play Market
    • Muzbank Amazon App