MUZBANK



A Most Complete Bank Of Music Information

МУЗЫКАЛЬНО-ИНФОРМАЦИОННЫЙ БАНК

Поиск по сайту







    DDimmu Borgir • Relinquishment Of Spirit And Flesh (аккорды и текст - chords & lyrics)


    358

    Print

    Видео «Relinquishment Of Spirit And Flesh (Dimmu Borgir)»

    Видео клипы к песне подбираются автоматически сайтом youtube. Возможны некоторые несоответствия клипов песне.

    ↑ Спрятать рекламу ↑



    Download


     Tuning: Standard
    
    
    
    Riff 1: (Play fast) 2 times
    |---------------------------------------------|
    |---------------------------------------------|
    |---------------------------------------------|
    |-----9h10-9-----9h10-9------8h9-8-----8h9-8--|
    |-777--------777---------666-------666--------|
    |---------------------------------------------|
    
    2 times
    |------------------------------------------------------|
    |------------------------------------------------------|
    |------------------------------------------------------|
    |-----11h12-11-----11h12-11-----10h11-10-----10h11-10--|
    |-999----------999----------888----------888-----------|
    |------------------------------------------------------|
    
    
    Riff 2:
    |-------------------------------------|
    |-------------------------------------|
    |-------------------------------------|
    |-------------------------------------|
    |-2222222222222222-333333333333333----|
    |-0000000000000000-111111111111111----|
    
     ...King of tempest and storms...
    
    Riff 1 again
    
    Riff 3:
    |-----------------------------------|
    |-----------------------------------|
    |-----------------------------------|
    |--9-999--7-777--9-999-----------8--|
    |--7-777--5-555--7-777--10/9/10--6--|
    |-----------------------8-/7/8------|
               
    
    Riff 4: (This is great riff)
    |--------------------------------------------------|
    |--------------------------------------------------|
    |--------------------------------------------------|
    |--------------------------------------------------|
    |-2--2--5/4---2--2--5/4---2--2--5/4---2--2--5/4/5--|
    |-0--0--3/2---0--0--3/2---0--0--3/2---0--0--3/2/3--|
               
    ...Revealing Thy powers in vision and dreams...
    
    Riff 5:
    |---------------------------------|
    |---------------------------------|
    |---------------------------------|
    |-777777777777777-66666666666666--|
    |-555555555555555-44444444444444--|
    |---------------------------------|
               
    
    Riff 6:
    |------------------------------------------------------|
    |------------------------------------------------------|
    |------------------------------------------------------|
    |------------------------------------------------------|
    |-2222222222222222--3333333333333333-7777777777777777--|              
    |-0000000000000000--1111111111111111-5555555555555555--|
      ................  ................ ................           
    
      ...I entreat You with devotion...
    
    Riff 1 again 

    Тональность:

    Нет текста!



    Назад
    Рекомендуем посмотреть другие песни исполнителя «Dimmu Borgir»:

    • Комментарии Facebook ()
    • Комментарии ВКонтакте



    Добавить в Избранное Браузера
    Сохранить здесь Очистить


    x

    0


    +
    -

    +
    -

    -

    Авторизация





    Зарегистрироваться

    M

    Дата и время

    • 07:14:27
       

    Социальные ссылки


    Наши приложения

    • Muzbank App Play Market
    • Muzbank Amazon App