MUZBANK



A Most Complete Bank Of Music Information

МУЗЫКАЛЬНО-ИНФОРМАЦИОННЫЙ БАНК

Поиск по сайту







    DDimmu Borgir • The Promised Future Aeons (аккорды и текст - chords & lyrics)


    318

    Print

    Видео «The Promised Future Aeons (Dimmu Borgir)»

    Видео клипы к песне подбираются автоматически сайтом youtube. Возможны некоторые несоответствия клипов песне.

    ↑ Спрятать рекламу ↑



    Download


     Tuning: standard
    
    Marking:
    Let ring: l
    Palm mute: ...
    Mute: m
    
    Keyboard intro...
    
    
    Riff 1:
    |---------------------------------------------------------|
    |---------------------------------------------------------|
    |---------------------------------------------------------|
    |---------------------------------------------------------|
    |-4-4444-4-4444-4-4444-4-4444--2-2222-2-2222--4-4444-5-4--|
    |-2-2222-2-2222-2-2222-2-2222--2-2222-2-2222--4-4444-5-4--|
    
    
    
    Riff 2:
    |----------------|
    |----------------|
    |----------------|
    |-5-----5--------|
    |-3--6--3--6--5--|
    |----4-----4--3--|
               .  
    
    Riff 3:
    |----------------------------------------------------|
    |----------------------------------------------------|
    |----------------------------------------------------|
    |-5-5555-5-5555-----------------5-5555-5-5555--------|
    |-3-3333-3-3333--6-6666-6-6666--3-3333-3-3333--6--5--|
    |----------------4-4444-4-4444-----------------4--3--|
        ....   ....    ....   ....    ....   ....  .  l
    
    
    Riff 4:
    |-------------------------------------|
    |-------------------------------------|
    |-------------------------------------|
    |-------------------------------------|
    |-3---7-7777--6-6666--7-7777--6-6666--|
    |-3---5-5555--4-4444--5-5555--4-4444--|
      l
    
    
    
    Riff 5:
    |----------------------------------------------------------------
    |----------------------------------------------------------------
    |----------------------------------------------------------------
    |-121212121212121212121212-777777777777-101010101010101010101010-
    |-101010101010101010101010-555555555555-8-8-8-8-8-8-8-8-8-8-8-8--
    |----------------------------------------------------------------
    
            ----------------|
            ----------------|
            ----------------|
            ---6-7-6-6-7-6--|
            ---4-5-4-4-5-4--|
            ----------------|
            
    
    Riff 6:
    |--------------------------|
    |--------------------------|
    |--------------------------|
    |-----4--7--3-----4--------|
    |--2--2--5--1--2--2--3--6--|
    |--0-----------0-----3--4--|
       l  l  l  l  l  l  l  l
    
    
    Keyboard...
    
    Fill 1:
    |--------------|
    |--------------|
    |--------------|
    |--------------|
    |-4--3-3-3--4--|
    |-2--1-1-1--2--|
      l  m m m  l
    
    
    Riff 7:
    |-----------------------|
    |-----------------------|
    |-----------------------|
    |-----------------------|
    |-3-333-3-333-3-333--4--|
    |-1-111-1-111-1-111--2--|
        ...   ...   ...  l
    
    
    Fill 2:
    |--------|
    |--------|
    |--------|
    |--6--5--|
    |--4--3--|
    |--------|
       l  l
    
    
    Riff 8:
    |------------------------|
    |------------------------|
    |------------------------|
    |------------------------|
    |-333333333333333333--4--|
    |-111111111111111111--2--|
      ..................  l
    
    
    Song Structure:
    
    Riff 1:         (4x)
    Riff 2:         (2x)
    Riff 3:         (2x)
    Riff 2:         (2x)
    Riff 3:         (2x)
    Riff 4:         (4x)
    Riff 5:         (4x)
    Riff 6:         (2x)
    
    Riff 2:         (2x)
    Riff 3:         (2x)
    Riff 2:         (2x)
    Riff 3:         (2x)
    Riff 1:         (4x)
    
    Keyboard:
    
    Fill 1:         (1x)
    Riff 7:         (1x)
    Fill 2:         (1x)
    Riff 7:         (3x)
    Fill 2:         (1x)
    Riff 7:         (3x)
    Fill 2:         (1x)
    Riff 7:         (3x)
    Fill 2:         (1x)
    Riff 8:         (3x)
    Fill 2:         (1x)
    Riff 8:         (3x)
    Fill 2:         (1x) 

    Тональность:

    Нет текста!



    Назад
    Рекомендуем посмотреть другие песни исполнителя «Dimmu Borgir»:

    • Комментарии Facebook ()
    • Комментарии ВКонтакте



    Добавить в Избранное Браузера
    Сохранить здесь Очистить


    x

    0


    +
    -

    +
    -

    -

    Авторизация





    Зарегистрироваться

    M

    Дата и время

    • 13:36:24
       

    Социальные ссылки


    Наши приложения

    • Muzbank App Play Market
    • Muzbank Amazon App