MUZBANK



A Most Complete Bank Of Music Information

МУЗЫКАЛЬНО-ИНФОРМАЦИОННЫЙ БАНК

Поиск по сайту







    DDio • Rainbow In The Dark (аккорды и текст - chords & lyrics)


    238

    Print

    Видео «Rainbow In The Dark (Dio)»

    Видео клипы к песне подбираются автоматически сайтом youtube. Возможны некоторые несоответствия клипов песне.

    ↑ Спрятать рекламу ↑



    Download



     
    
    
    Artist: Dio
    Title: Rainbow In The Dark
    Album: Holy Diver
    Transcribed by: Costas TG
    Email: costastg@hotmail.com
    
    Intro                   
    G-----|
    D-----|
    A-----|
    E--3--|
    
    G-------------------------------|
    D-------------------------------|
    A---------------------3-2-------|
    E-5-5--1-0-1-3--3-3-3-----5-3---|(Main Riff x3)
                                                     
    G---------------|
    D---------------|
    A---------------|
    E-5-5--1-0-1-3--|(x1)                                        
         
    Verse          
    G-------------------------------|
    D-------------------------------|
    A---------------------3-2-------|
    E-5-5--1-0-1-3--3-3-3-----5-3---|(Main Riff x3)
                                                     
    G---------------|
    D---------------|
    A---------------|
    E-5-5--1-0-1-3--|(x1)                                                  
    
    Prechorus
    G------------------------------------------------------------------|
    D------------------------------------------------------------------|
    A------------------------------------------------------------------|
    E--0-0-0-0-0-0-0-0-1-1-1-1-1-1-1-1-0-0-0-0-0-0-0-0-1-1-1-1-1-1-1-1-|
                                                      
    Chorus
    G-------------------------------|
    D-------------------------------|
    A---------------------3-2-------|
    E-5-5--1-0-1-3--3-3-3-----5-3---|
                                                     
    G---------------|
    D---------------|
    A---------------|
    E-5-5--1-0-1-3--|  
    
    Solo
    G-------------------------------|
    D-------------------------------|
    A---------------------3-2-------|
    E-5-5--1-0-1-3--3-3-3-----5-3---|(Main Riff x8)
                                                     
    G------------------------------------------------------------------|
    D------------------------------------------------------------------|
    A------------------------------------------------------------------|
    E--0-0-0-0-0-0-0-0-1-1-1-1-1-1-1-1-0-0-0-0-0-0-0-0-1-1-1-1-1-1-1-1-|
     

    Тональность:

    Нет текста!



    Назад
    Рекомендуем посмотреть другие песни исполнителя «Dio»:

    • Комментарии Facebook ()
    • Комментарии ВКонтакте



    Добавить в Избранное Браузера
    Сохранить здесь Очистить


    x

    0


    +
    -

    +
    -

    -

    Авторизация





    Зарегистрироваться

    M

    Дата и время

    • 01:00:04
       

    Социальные ссылки


    Наши приложения

    • Muzbank App Play Market
    • Muzbank Amazon App