MUZBANK



A Most Complete Bank Of Music Information

МУЗЫКАЛЬНО-ИНФОРМАЦИОННЫЙ БАНК

Поиск по сайту







    DDire Straits • Sultans of Swing (аккорды и текст - chords & lyrics)


    208

    Print

    Видео «Sultans of Swing (Dire Straits)»

    Видео клипы к песне подбираются автоматически сайтом youtube. Возможны некоторые несоответствия клипов песне.

    ↑ Спрятать рекламу ↑



    Download



     
    
    
    B          B         R       B  R B  R B
    E-9-8-9----10-|--------5---------9-------7------------------
    B-8-8-8-10----|------5---5-8(10)---(10)8---8-8(10)8(10)8(10)
    G----------10-|-7(9)----------------------------------------
    D-----------------------------------------------
    A-----------------------------------------------
    E-----------------------------------------------
    
        S     S           S                    S                  H
    E-------------------|-----10-8-------------
    B------8-86--6-6-6-|----------10-|-6-6-6-6/8----------
    G--7/9-9-97--7-7-7-|-/10------10-|-7-7-7-7/9--|-----5---5---5^7---
    D----------8--8-8-8---|-8-8-8-8/10-|-5-7---7---7-------
    A------------------------------
    E------------------------------
    
        B R B R B R     S
    E-3---------------|-/9-9---------------------------
    B-4(5)4(5)4(5)4-3-|-------10---------10-|-5-5--6-5-6-5--3-|---------6-5----
    G-----------------|----------9----------|-5-5--7-5-7-5--3-|-----7-5-----8-7
    D------------------12-11----------|-5/7------------
    A--------------------------------------
    E--------------------------------------
    
             S                  P     S                P   S
    E-------------------------------------------------------------
    B-6-6-6-6/8-----|-6-5-3--6-6^5-5--/10-8--6-5-3--6-6^5---------------------
    G-7-7-7-7/9--2x-|-7-5-3--7-7^5-5--/10-9--7-5-3--7-7^5----------5----------
    D-8-8-8-8/10------------------------------3/5-7-8-------------
    A-------------------------------------------------------------
    E-------------------------------------------------------------
    
         B          R                P                    R  B
    E---------12--------------13-|-12^9-------------------------------
    B--12(14)----(14)12----------|------10----------10----------------
    G-------------------11/14----|---------9-----------(14)12(14)-----
    D-----------------------------12-11-------------------
    A-----------------------------------------------------
    E-----------------------------------------------------
    
        S     S            S         S          S 2x           P     S
    E----------------------------------
    B------8-86--6-6-6-|---------6---|--6-6-6-6/8-|-6-5-3--6-6^5-5--/10-8-
    G--7/9-9-97--7-7-7-|-----7-5---7|--7-7-7-7/9-|-7-5-3--7-7^5-5--/10-9-
    D----------8--8-8-8-|-5/7---------|--8-8-8-8/10------------
    A----------------------------------
    E----------------------------------
    
                P     S
    E------------------------------------------------
    B-6-5-3--6-6^5-5---------------------------------
    G-7-5-3--7-7^5-5--------5-|--First-Guitar-Solo-|-repeat-last-lick--------
    D----------------3/5-7-8-------------------------
    A------------------------------------------------
    E------------------------------------------------
    
             S       S          S        S       S     Arp    S
    E-------7/9-9-(9)/12-12-1210-|-9--------6------
    B-----------------------------|-5-|-----8-(8)6-----6--|-------6---6----
    G--6--7-7/9---(9)/12----1210-|-0-|-7/9---(9)7----7---|-----7---7---7--
    D---7-------------------------|-----8------|-5/7------------
    A-----------------------------------
    E-----------------------------------
    
             S 2x           P     S                P     S
    E--------------------------------------------------
    B-6-6-6-6/8-|-6-5-3--6-6^5-5--/10-8--6-5-3--6-6^5-5------------
    G-7-7-7-7/9-|-7-5-3--7-7^5-5--/10-9--7-5-3--7-7^5-5---------5-|Second-Solo-
    D-8-8-8-8/10----------------------------3/5-7-8----
    A--------------------------------------------------
    E--------------------------------------------------
    
    First Guitar Solo:
         B        B      B      B       H  P     H  P
    E---------------------------------------------------------------------
    B-----------------------------------------------------------10--------
    G--12(14)---12(14)-12(14)-12(14)--10^12^10--9^10^9--------9-----------
    D------------------------------------------------------11-------------
    A---------------------------------------------------12----------------
    E---------------------------------------------------------------------
         B  R                          H  P
    E--12(13)12--10-------------------------------------------------------
    B---------------10--------10-13--11^13^11--10---11--9-10--------------
    G------------------10-------------------------------------------------
    D---------------------12----------------------------------------------
    A---------------------------------------------------------------------
    E---------------------------------------------------------------------
         B       B          R       S
    E----------------13-------------/13-12--------------------------------
    B--------13--------13------------------13----10----13-13--------------
    G--12(14)--12(14)----(14)12-10------------12----12--------------------
    D---------------------------------------------------------------------
    A---------------------------------------------------------------------
    E---------------------------------------------------------------------
         B        R        B      B          H
    E--------------------------------------13^10----10--------10----------
    B--13(15)--(15)13-11-13(15)-13(15)--10-------10----13(15)----10-------
    G---------------------------------------------------------------12-10
    D---------------------------------------------------------------------
    A---------------------------------------------------------------------
    E---------------------------------------------------------------------
                           S        H  S
    E---------------------------------------------------------------------
    B--------6---------------------------------------6--------------------
    G------7---7-------9-10/12-10--9^10/12---------7---7---0-5--7-5-------
    D----8-----------10--------------------------8------------------------
    A--8-----------10--------------------------8--------------------------
    E---------------------------------------------------------------------
        B       R
    E---------------------------------------------------------------------
    B-------8-------------------------------------------------------------
    G--7(9)---(9)7-5-7-7--------------------------------------------------
    D---------------------------------------------------------------------
    A---------------------------------------------------------------------
    E---------------------------------------------------------------------
    
    Second Guitar Solo:
        B                       B  R     H  P    H P    H P   H P   H P
    E-----------------------------------------------------------------------
    B-----------------------------------------------------------------------
    G-12(14)-12--10-12-10-----12(14)12--9^12^9--7^9^7--5^7^5----------------
    D---------------------12---------------------------------5^7^5----------
    A--------------------------------------------------------------5^7^5----
    E-----------------------------------------------------------------------
    
        P P H P          H  P       H  P      H  P      H  P      H  P
    E---------------------------8---------8---------8---------8-------------
    B-10^8^6^8^6---8----8^10^8-----8^10^8----8^10^8----8^10^8----8^10^8-----
    G------------7----9--------9----------9---------9---------9---------9---
    D-----------------------------------------------------------------------
    A-----------------------------------------------------------------------
    E-----------------------------------------------------------------------
    
         H  P        B            P     P     P         H
    E-8----------------------10---------------------------------------------
    B---8^10^8------------10----13^10--------------------------10-----------
    G----------9---12(14)-------------12^10-12^10-----------10----12--------
    D---------------------------------------------12--10^12-----------------
    A-----------------------------------------------------------------------
    E-----------------------------------------------------------------------
    
                       B          R           P            P
    E-----------------------12--------10-|--13^10----10--13^10----10--------
    B-----10-----11--11(13)----(13)11----|--------10-----------10-----------
    G---X------X------------------------------------------------
    D-X------X--------------------------------------------------
    A-----------------------------------------------------------
    E-----------------------------------------------------------
    
         P            P            P            P            P
    E--13^10----10--13^10----10--13^10----10--13^10----10--13^10----10------
    B--------10-----------10-----------11-----------11-----------11---------
    G-----------------------------------------------------------------------
    D-----------------------------------------------------------------------
    A-----------------------------------------------------------------------
    E-----------------------------------------------------------------------
    
         P            P            P            P            P
    E--13^10----10--15^12----12--15^12----12--15^12----12--15^12----12------
    B--------11-----------13-----------13-----------13-----------13---------
    G-----------------------------------------------------------------------
    D-----------------------------------------------------------------------
    A-----------------------------------------------------------------------
    E-----------------------------------------------------------------------
                                                          Fade out.
         P            P            P            P            B       B  R
    E--15^12----12--15^12----12--15^12----12--15^12----12|-15(17)--15(17)15-
    B--------13-----------13-----------13-----------13----------
    G---------------------------------------------------.-------
    D---------------------------------------------------.-------
    A-----------------------------------------------------------
    E-----------------------------------------------------------
    
                     B  R      H  P     H  P      H  P
    E--13------13--15(17)15--13^15^13---------------------------------------
    B-----14--------------------------13^15^13--10^13^10--------------------
    G-----------------------------------------------------------------------
    D-----------------------------------------------------------------------
    A-----------------------------------------------------------------------
    E-----------------------------------------------------------------------
     

    Тональность:

    Нет текста!



    Назад
    Рекомендуем посмотреть другие песни исполнителя «Dire Straits»:

    • Комментарии Facebook ()
    • Комментарии ВКонтакте



    Добавить в Избранное Браузера
    Сохранить здесь Очистить


    x

    0


    +
    -

    +
    -

    -

    Авторизация





    Зарегистрироваться

    M

    Дата и время

    • 15:02:27
       

    Социальные ссылки


    Наши приложения

    • Muzbank App Play Market
    • Muzbank Amazon App