MUZBANK



A Most Complete Bank Of Music Information

МУЗЫКАЛЬНО-ИНФОРМАЦИОННЫЙ БАНК

Поиск по сайту







    DDissection • Elisabath Bathori (аккорды и текст - chords & lyrics)


    210

    Print

    Видео «Elisabath Bathori (Dissection)»

    Видео клипы к песне подбираются автоматически сайтом youtube. Возможны некоторые несоответствия клипов песне.

    ↑ Спрятать рекламу ↑



    Download


     
    
    
    Elisabeth Bathori By Dissection
    Taken from the Where dead angels lie Ep
    
    Transcripted by hallanus@hotmail.com
    
    A very nice song this one
    Hope you enjoy it
    
    Riif 1
    E---------------------------
    B---------------------------
    G-------------------5---7---
    D-9-9-7-9-9-7-9-9--5-5-7-7--
    A-7-7-5-7-7-5-7-7-3---5-----
    E---------------------------
    
    Riff 2
    E---------------------------------
    B---------------------------------
    G---------------------------------
    D-9-9--8-8--9-9------9-9--8-8-----
    A-7-77-6-66-7-77-5-5-7-77-6-66-8--
    E----------------3-3-----------6--
    
    Riff 3
    E------------
    B------------
    G------------
    D-9---9-7-9--
    A-7---7-5-7--
    E------------
    
    Riff 4
    E--------------
    B--------------
    G--------------
    D----4---------
    A-2--2--5------
    E-0-----3-3-2--
    
    Riff 5
    E-------------------------------------------------------------------------------------3--
    B-----------------------5--6--3----5--6--3---------------------------5--6--3----5--6--3--
    G-2--5--1----2--5--1---------------------------2--5--1----2--5--1------------------------
    D----------------------------------------------------------------------------------------
    A----------------------------------------------------------------------------------------
    E----------------------------------------------------------------------------------------
    
    Riff 6
    Not sure about this one
    Sounds better with two guitars I think
    E----------
    B-2--5--1--
    G-2--5--1--
    D----------
    A----------
    E----------
    
    And the song goes like this
    
    Riff 1  8  times
    Riff 2  2  times
    Riff 1  4  times
    Riff 2  2  times
    Riff 3  4  times
    Riff 4  12 times
    Riff 1  5  times
    Riff 2  2  times
    Riff 5  1  times
    Riff 6  8  times
    Riff 1  4  times
    Riff 2  2  times
    
    As always: Listen to the song to get it right
     

    Тональность:

    Нет текста!



    Назад
    Рекомендуем посмотреть другие песни исполнителя «Dissection»:

    • Комментарии Facebook ()
    • Комментарии ВКонтакте



    Добавить в Избранное Браузера
    Сохранить здесь Очистить


    x

    0


    +
    -

    +
    -

    -

    Авторизация





    Зарегистрироваться

    M

    Дата и время

    • 20:24:44
       

    Социальные ссылки


    Наши приложения

    • Muzbank App Play Market
    • Muzbank Amazon App