MUZBANK



A Most Complete Bank Of Music Information

МУЗЫКАЛЬНО-ИНФОРМАЦИОННЫЙ БАНК

Поиск по сайту







    DDistillers • Beat Your Heart Out (аккорды и текст - chords & lyrics)


    397

    Print

    Видео «Beat Your Heart Out (Distillers)»

    Видео клипы к песне подбираются автоматически сайтом youtube. Возможны некоторые несоответствия клипов песне.

    ↑ Спрятать рекламу ↑



    Download


     
    
    
    The Distillers
    Beat Your Heart Out
    Coral Fang (2003)
    Standard Tuning
    
    e|------------------|
    b|------------------|
    g|------------------|
    d|-8-8-8-8-8-8-8-10-|
    a|-8-8-8-8-8-8-8-10-|
    e|-6-6-6-6-6-6-6-8--|
    
    e|---------------|----------------------------|
    b|---------------|----------------------------| 
    g|-7-------------|----------------------------|
    d|-7-(8x)-5------|-2-2-2-5-5-5--8-------10-10-|
    a|-5------5-(8x)-|-2-2-2-5-5-5--8-(10x)-10-10-|
    e|--------3------|-0-0-0-3-3-3--6-------8--8--|
    
    e|-----------------------------------------|
    b|-----------------------------------------|
    g|-7-7-7-7-7-7-7-7-------------------------|
    d|-7-7-7-7-7-7-7-7-5-5-5-5-5-5-4-4-4-4-4-4-|
    a|-5-5-5-5-5-5-5-5-5-5-5-5-5-5-4-4-4-4-4-4-|
    e|-----------------3-3-3-3-3-3-2-2-2-2-2-2-|
    
    e|-----------------------------------------|
    b|-----------------------------------------|
    g|-7-7-7-7-7-7-7-7-------------------------|
    d|-7-7-7-7-7-7-7-7-4-4-4-4-4-4-5-5-5-5-5-5-|
    a|-5-5-5-5-5-5-5-5-4-4-4-4-4-4-5-5-5-5-5-5-|
    e|-----------------2-2-2-2-2-2-3-3-3-3-3-3-|
    
    e|-----------------------------------------|
    b|-----------------------------------------|
    g|-7-7-7-7-7-7-7-7-------------------------|
    d|-7-7-7-7-7-7-7-7-5-5-5-5-5-5-4-4-4-4-4-4-|
    a|-5-5-5-5-5-5-5-5-5-5-5-5-5-5-4-4-4-4-4-4-|
    e|-----------------3-3-3-3-3-3-2-2-2-2-2-2-|
    
    e|-----------------------------------------|
    b|-----------------------------------------|
    g|-7-7-7-7-7-7-7-7-------------------------|
    d|-7-7-7-7-7-7-7-7-4-4-4-4-4-4-5-5-5-5-5-5-|
    a|-5-5-5-5-5-5-5-5-4-4-4-4-4-4-5-5-5-5-5-5-|
    e|-----------------2-2-2-2-2-2-3-3-3-3-3-3-|
    
    e|------------------|
    b|------------------|
    g|------------------|
    d|-8-8-8-8-8-8-8-10-|
    a|-8-8-8-8-8-8-8-10-|
    e|-6-6-6-6-6-6-6-8--|
    
    e|---------------|---------------------------------------|
    b|---------------|---------------------------------------| 
    g|-7-------------|---------------------------------------|
    d|-7-(8x)-5------|-2-2-2-5-5-5--2-2-2-5-5-5--2-2-2-5-5-5-|
    a|-5------5-(8x)-|-2-2-2-5-5-5--2-2-2-5-5-5--2-2-2-5-5-5-|
    e|--------3------|-0-0-0-3-3-3--0-0-0-3-3-3--0-0-0-3-3-3-|
    
    e|-----------------------------------------|
    b|-----------------------------------------|
    g|-7-7-7-7-7-7-7-7-------------------------|
    d|-7-7-7-7-7-7-7-7-4-4-4-4-4-4-5-5-5-5-5-5-|
    a|-5-5-5-5-5-5-5-5-4-4-4-4-4-4-5-5-5-5-5-5-|
    e|-----------------2-2-2-2-2-2-3-3-3-3-3-3-|
    
    e|-----------------------------------------|
    b|-----------------------------------------|
    g|-7-7-7-7-7-7-7-7-------------------------|
    d|-7-7-7-7-7-7-7-7-5-5-5-5-5-5-4-4-4-4-4-4-|
    a|-5-5-5-5-5-5-5-5-5-5-5-5-5-5-4-4-4-4-4-4-|
    e|-----------------3-3-3-3-3-3-2-2-2-2-2-2-|
    
    e|-----------------------------------------|
    b|-----------------------------------------|
    g|-7-7-7-7-7-7-7-7-------------------------|
    d|-7-7-7-7-7-7-7-7-4-4-4-4-4-4-5-5-5-5-5-5-|
    a|-5-5-5-5-5-5-5-5-4-4-4-4-4-4-5-5-5-5-5-5-|
    e|-----------------2-2-2-2-2-2-3-3-3-3-3-3-|
    
    e|-----------------------------------------|
    b|-----------------------------------------|
    g|-7-7-7-7-7-7-7-7-------------------------|
    d|-7-7-7-7-7-7-7-7-5-5-5-5-5-5-4-4-4-4-4-4-|
    a|-5-5-5-5-5-5-5-5-5-5-5-5-5-5-4-4-4-4-4-4-|
    e|-----------------3-3-3-3-3-3-2-2-2-2-2-2-|
    
    e|---------------|-----------------------------------------|
    b|---------------|-----------------------------------------| 
    g|-7-------------|-----------------------------------------|
    d|-7-(8x)-5------|-2-2-2-5-5-5--2-2-2-5-5-5--8-------10-10-|
    a|-5------5-(8x)-|-2-2-2-5-5-5--2-2-2-5-5-5--8-(10x)-10-10-|
    e|--------3------|-0-0-0-3-3-3--0-0-0-3-3-3--6-------8--8--|
    
    e|-----------------------|
    b|-----------------------|
    g|-7---------------------|
    d|-7-(16x)-5------4------|
    a|-5-------5-(8x)-4-(8x)-|
    e|---------3------2------|
      all palm muted
    
    e|-----------------------------------------|
    b|-----------------------------------------|
    g|-7-7-7-7-7-7-7-7-------------7-7-7-7-7-7-|
    d|-7-7-7-7-7-7-7-7-4-4-4-4-4-4-7-7-7-7-7-7-|
    a|-5-5-5-5-5-5-5-5-4-4-4-4-4-4-5-5-5-5-5-5-|
    e|-----------------2-2-2-2-2-2-------------|
    
    e|-------------------------------------|
    b|-------------------------------------|
    g|-7-------------7-------------10------|
    d|-7-(8x)-5------7-(8x)-5------10-(8x)-|
    a|-5------5-(8x)-5------5-(8x)-8-------|
    e|--------3-------------3--------------|
    
    e|-----------------------------------------|
    b|-----------------------------------------|
    g|-7-7-7-7-7-7-7-7-------------------------|
    d|-7-7-7-7-7-7-7-7-5-5-5-5-5-5-4-4-4-4-4-4-|
    a|-5-5-5-5-5-5-5-5-5-5-5-5-5-5-4-4-4-4-4-4-|
    e|-----------------3-3-3-3-3-3-2-2-2-2-2-2-|
    
    e|-----------------------------------------|
    b|-----------------------------------------|
    g|-7-7-7-7-7-7-7-7-------------------------|
    d|-7-7-7-7-7-7-7-7-5-5-5-5-5-5-4-4-4-4-4-4-|
    a|-5-5-5-5-5-5-5-5-5-5-5-5-5-5-4-4-4-4-4-4-|
    e|-----------------3-3-3-3-3-3-2-2-2-2-2-2-|
    
    e|--------------------------------------|
    b|--------------------------------------|
    g|-7-------------10-------------10------|
    d|-7-(8x)-5------10-(8x)-5------10-(8x)-|
    a|-5------5-(8x)-8-------5-(8x)-8-------|
    e|--------3--------------3--------------|
    
    e|---|
    b|---|
    g|-7-|
    d|-7-|
    a|-5-|
    e|---|
     

    Тональность:

    Нет текста!



    Назад
    Рекомендуем посмотреть другие песни исполнителя «Distillers»:

    • Комментарии Facebook ()
    • Комментарии ВКонтакте



    Добавить в Избранное Браузера
    Сохранить здесь Очистить


    x

    0


    +
    -

    +
    -

    -

    Авторизация





    Зарегистрироваться

    M

    Дата и время

    • 21:08:30
       

    Социальные ссылки


    Наши приложения

    • Muzbank App Play Market
    • Muzbank Amazon App