MUZBANK



A Most Complete Bank Of Music Information

МУЗЫКАЛЬНО-ИНФОРМАЦИОННЫЙ БАНК

Поиск по сайту







    DDistillers • Sick Of It All (аккорды и текст - chords & lyrics)


    163

    Print

    Видео «Sick Of It All (Distillers)»

    Видео клипы к песне подбираются автоматически сайтом youtube. Возможны некоторые несоответствия клипов песне.

    ↑ Спрятать рекламу ↑



    Download



     
    
    
    SICK OF IT ALL
    SING SING DEATH HOUSE
    THE DISTILLERS
    
    No ones tabbed this song yet so I thought id get in there first.
    Questions, comments or complaints jenbugalugs1@email.com or add me on msn
    jenbugalugs1@hotmail.com. Timing is only accurate, listen to the cd to get it
    right or tab it yourself. Tabbed by me, Jules
    
    
    INTRO/VERSE PART 1: 
    e|--------------------------------------|
    B|--------------------------------------| 
    G|-7/9999999--7/9999999--------7---7-9--| 
    D|-7/9999999--7/9999999---555--7-7-7-9--| 
    A|-5/7777777--5/7777777---555--5-7-5-7--| 
    E|------------------------333----5------| 
    
    
    VERSE PART 2: 
    e|------------------------------| 
    B|------------------------------| 
    G|-----------77777777--9999999--| 
    D|-55555555--77777777--9999999--| 
    A|-55555555--55555555--7777777--| 
    E|-33333333---------------------| 
    I WENT TO SCHOOL TODAY...
    
    BRIDGE: 
    e|------------|-------------------|------------| (PLAY THE 1ST  BIT 
    B|------------|-------------------|------------|  TWICE BEFORE MOVING
    G|-99-7-10-12-|----7---99-7-10-12-|---7---7-9--|  ON.)
    D|-99-7-10-12-|-5--7---99-7-10-12-|-5-7-7-7-9--|  
    A|-77-5--8-10-|-5--5---77-5-8--10-|-5-5-7-5-7--| 
    E|------------|-3-----------------|-3---5------| 
    
    FILL 1:
    e|-------------------|
    B|-------------------| 
    G|-9-9-------9-9-----| 
    D|-9-9--555--9-9--555| 
    A|-7-7--555--7-7--555| 
    E|------333-------333| 
    
    FILL 2:
    e|------------|
    B|------------| 
    G|---7---7-9--| 
    D|-7-7-7-7-9--| 
    A|-7-5-7-5-7--| 
    E|-5---5------| 
    
    
    ENDING: 
    e|------------------------------------------------------| 
    B|------------------------------------------------------| 
    G|-9999999------------77777777------9999------9999------| 
    D|-9999999--55555555--77777777--77--9999--77--9999--77--| 
    A|-7777777--55555555--55555555--77--7777--77--7777--77--| 
    E|----------33333333------------55--------55--------57--| 
    
    SONG STRUCTURE:
    INTRO X4
    VERSE1 X2
    VERSE2 X4
    BRIDGE 
    VERSE2 X4
    FILL 1 
    FILL 2
    FILL 1
    FILL 2 X2
    SOLO
    ENDING X6
    
    That’s it apart from the solo, but I’m rubbish at working out solos so I doubt
    that it’ll get here.
     

    Тональность:

    Нет текста!



    Назад
    Рекомендуем посмотреть другие песни исполнителя «Distillers»:

    • Комментарии Facebook ()
    • Комментарии ВКонтакте



    Добавить в Избранное Браузера
    Сохранить здесь Очистить


    x

    0


    +
    -

    +
    -

    -

    Авторизация





    Зарегистрироваться

    M

    Дата и время

    • 13:34:56
       

    Социальные ссылки


    Наши приложения

    • Muzbank App Play Market
    • Muzbank Amazon App