MUZBANK



A Most Complete Bank Of Music Information

МУЗЫКАЛЬНО-ИНФОРМАЦИОННЫЙ БАНК

Поиск по сайту







    DDisturbed • Believe (аккорды и текст - chords & lyrics)


    149

    Print

    Видео «Believe (Disturbed)»

    Видео клипы к песне подбираются автоматически сайтом youtube. Возможны некоторые несоответствия клипов песне.

    ↑ Спрятать рекламу ↑



    Download



     
    
    
    Disturbed
    Believe
    
    Tune: Db Ab Db Gb Bb Eb
    
    p = pull off
    / = slide up
    pm = palm mute
    
    |------------------------------------------|
    |------------------------------------------|
    |------------------------------------------|
    |-7-7-7--7/10-10-10--10-10-10-10--10-8-8-7-|
    |-5-5-5--5-5--5--5---5-/8--8--8---8--5-5-5-|
    |-5-5-5--5-5--5--5---5-/8--8--8---8--0-0-0-|
    
    |------------------------------------------------|
    |------------------------------------------------|
    |------------------------------------------------|
    |-7-7-7--7/10-10-10--10-10-10-10--10-------------|
    |-5-5-5--5-5--5--5---5-/8--8--8---8--0-0-0-0-0-0-|
    |-5-5-5--5-5--5--5---5-/8--8--8---8--0-0-0-0-0-0-|
                                        [----pm-----]
    
    |----------------------------------|
    |----------------------------------|
    |----------------------------------|
    |----------------------------8-8-7-|
    |----------------------------5-5-5-|
    |-5-5-5--5-5-5-5--5-8-8-8--8-0-0-0-|
     [--------------pm----------------]
    
    |----------------------------------------|
    |----------------------------------------|
    |----------------------------------------|
    |----------------------------------------|
    |----------------------------------------|
    |-5-5-5--5-5-5-5--5-8-8-8--8-0-0-0-0-0-0-|
     [-----------------pm-------------------]
    
    |--------------------------------------|
    |--------------------------------------|
    |--------------------------------------|
    |-7-7-7----------------------8-8-7-----|
    |-5-5-5----------------------5-5-5-----|
    |-5-5-5--5-5-5-5--5-8-8-8--8-0-0-0-----|
            [--------pm--------]
    
    |----------------------------------------|
    |----------------------------------------|
    |----------------------------------------|
    |-7-7-7----------------------------------|
    |-5-5-5----------------------------------|
    |-5-5-5--5-5-5-5--5-8-8-8--8-0-0-0-0-0-0-|
             [--------------pm-------------]
    
    |-------------------------------------------------|
    |-------------------------------------------------|
    |-3-3-3-2-2-2-------------------------------------|
    |-3-3-3-3-3-3-3-3-3-6-3-6/5-8-5-8-1-1/5-8-5-8-1-1-|
    |-1-1-1-1-1-1-3-3-3-6-3-6/5-8-5-8-1-1/5-8-5-8-1-1-|
    |-------------3-3-3---3--/5---5---1-1/5---5---1-1-|
    
    |----------------------------------------------------
    |----------------------------------------------------
    |-3-3-3-2-2-2----------------------------------------
    |-3-3-3-3-3-3-3-3-3-6-3-6-5-5-5-10-10-10-1-1-1-3-3-1-
    |-1-1-1-1-1-1-3-3-3-6-3-6-5-5-5-10-10-10-1-1-1-3-3-1-
    |-------------3-3-3---3---5-5-5-10-10-10-1-1-1-3-3-1-
    
     -------------------------------------------------------
     -------------------------------------------------------
     -------------------------------------------8-8-8-------
     -5-5-5-10-10-10-1-1-1-3-3-1-5-5-5-10-10-10-8-8-8-8-8-8-
     -5-5-5-10-10-10-1-1-1-3-3-1-5-5-5-10-10-10-6-6-6-8-8-8-
     -5-5-5-10-10-10-1-1-1-3-3-1-5-5-5-10-10-10-------8-8-8-
    
     --------------------------------------------------|
     --------------------------------------------------|
     --------------------------------------------------|
     -5-5-5-10-10-10-1-1-1-3-3-1-6-6-6-6-6-6-6-6-6-6-6-|
     -5-5-5-10-10-10-1-1-1-3-3-1-6-6-6-6-6-6-6-6-6-6-6-|
     -5-5-5-10-10-10-1-1-1-3-3-1-6-6-6-6-6-6-6-6-6-6-6-|
                                   [-----pm----]
    
    |------------------------------------------|
    |------------------------------------------|
    |------------------------------------------|
    |-7-7-7--7/10-10-10--10-10-10-10--10-8-8-7-|
    |-5-5-5--5-5--5--5---5-/8--8--8---8--5-5-5-|
    |-5-5-5--5-5--5--5---5-/8--8--8---8--0-0-0-|
    
    |------------------------------------------------|
    |------------------------------------------------|
    |------------------------------------------------|
    |-7-7-7--7/10-10-10--10-10-10-10--10-------------|
    |-5-5-5--5-5--5--5---5-/8--8--8---8--0-0-0-0-0-0-|
    |-5-5-5--5-5--5--5---5-/8--8--8---8--0-0-0-0-0-0-|
                                        [----pm-----]
    
    |----------------------------------|
    |----------------------------------|
    |----------------------------------|
    |----------------------------8-8-7-|
    |----------------------------5-5-5-|
    |-5-5-5--5-5-5-5--5-8-8-8--8-0-0-0-|
     [--------------pm----------------]
    
    |----------------------------------------|
    |----------------------------------------|
    |----------------------------------------|
    |----------------------------------------|
    |----------------------------------------|
    |-5-5-5--5-5-5-5--5-8-8-8--8-0-0-0-0-0-0-|
     [-----------------pm-------------------]
    
    |--------------------------------------|
    |--------------------------------------|
    |--------------------------------------|
    |-7-7-7----------------------8-8-7-----|
    |-5-5-5----------------------5-5-5-----|
    |-5-5-5--5-5-5-5--5-8-8-8--8-0-0-0-----|
            [--------pm--------]
    
    |----------------------------------------|
    |----------------------------------------|
    |----------------------------------------|
    |-7-7-7----------------------------------|
    |-5-5-5----------------------------------|
    |-5-5-5--5-5-5-5--5-8-8-8--8-0-0-0-0-0-0-|
             [--------------pm-------------]
    
    |-------------------------------------------------|
    |-------------------------------------------------|
    |-3-3-3-2-2-2-------------------------------------|
    |-3-3-3-3-3-3-3-3-3-6-3-6/5-8-5-8-1-1/5-8-5-8-1-1-|
    |-1-1-1-1-1-1-3-3-3-6-3-6/5-8-5-8-1-1/5-8-5-8-1-1-|
    |-------------3-3-3---3--/5---5---1-1/5---5---1-1-|
    
    |----------------------------------------------------
    |----------------------------------------------------
    |-3-3-3-2-2-2----------------------------------------
    |-3-3-3-3-3-3-3-3-3-6-3-6-5-5-5-10-10-10-1-1-1-3-3-1-
    |-1-1-1-1-1-1-3-3-3-6-3-6-5-5-5-10-10-10-1-1-1-3-3-1-
    |-------------3-3-3---3---5-5-5-10-10-10-1-1-1-3-3-1-
    
     -------------------------------------------------------
     -------------------------------------------------------
     -------------------------------------------8-8-8-------
     -5-5-5-10-10-10-1-1-1-3-3-1-5-5-5-10-10-10-8-8-8-8-8-8-
     -5-5-5-10-10-10-1-1-1-3-3-1-5-5-5-10-10-10-6-6-6-8-8-8-
     -5-5-5-10-10-10-1-1-1-3-3-1-5-5-5-10-10-10-------8-8-8-
    
     --------------------------------------------------|
     --------------------------------------------------|
     --------------------------------------------------|
     -5-5-5-10-10-10-1-1-1-3-3-1-6-6-6-6-6-6-6-6-6-6-6-|
     -5-5-5-10-10-10-1-1-1-3-3-1-6-6-6-6-6-6-6-6-6-6-6-|
     -5-5-5-10-10-10-1-1-1-3-3-1-6-6-6-6-6-6-6-6-6-6-6-|
                                   [-----pm----]
    
    |-------------------------------------------------------------|
    |-------------------------------------------------------------|
    |-------------------------------------------------------------|
    |-0------------------------------------------------------3--3-|
    |-0--------8p7-----7p5-----5p3p0-/8------8p7-----7p5-----1--1-|
    |-0---0--0-----0-0-----0-0----------0--0-----0-0-----0-0------|
    
    |--------------------------------------------------------------------------
    |--------------------------------------------------------------------------
    |--------------------------------------------------------------------------
    |--------------------------------------------------------------------------
    |-------------8p7---------7p5---------5p3p0-/8-------------8p7---------7p5-
    |-0-0-0-0-0-0-----0-0-0-0-----0-0-0-0----------0-0-0-0-0-0-----0-0-0-0-----
      [----pm----]    [--pm--]    [--pm--]         [----pm----]    [--pm--]
    
     ---------------|
     ---------------|
     ---------------|
     ---------3-3-3-|
     ---------1-1-1-|
     -0-0-0-0-------|
      [--pm--]
    
    |------------------------------------------|
    |------------------------------------------|
    |------------------------------------------|
    |-7-7-7--7/10-10-10--10-10-10-10--10-8-8-7-|
    |-5-5-5--5-5--5--5---5-/8--8--8---8--5-5-5-|
    |-5-5-5--5-5--5--5---5-/8--8--8---8--0-0-0-|
    
    |-------------------------------------------------|
    |-------------------------------------------------|
    |-3-3-3-2-2-2-------------------------------------|
    |-3-3-3-3-3-3-3-3-3-6-3-6/5-8-5-8-1-1/5-8-5-8-1-1-|
    |-1-1-1-1-1-1-3-3-3-6-3-6/5-8-5-8-1-1/5-8-5-8-1-1-|
    |-------------3-3-3---3--/5---5---1-1/5---5---1-1-|
    
    |------------------------------------------------------
    |------------------------------------------------------
    |-3-3-3-2-2-2------------------------------------------
    |-3-3-3-3-3-3-3-3-3-6-3-6-5-5-5-10-10-10-1-1-1-3-3-3-1-
    |-1-1-1-1-1-1-3-3-3-6-3-6-5-5-5-10-10-10-1-1-1-3-3-3-1-
    |-------------3-3-3---3---5-5-5-10-10-10-1-1-1-3-3-3-1-
                                                   [-pm-]
     -------------------------------------------------------
     -------------------------------------------------------
     -------------------------------------------8-8-8-------
     -5-5-5-10-10-10-1-1-1-3-3-1-5-5-5-10-10-10-8-8-8-8-8-8-
     -5-5-5-10-10-10-1-1-1-3-3-1-5-5-5-10-10-10-6-6-6-8-8-8-
     -5-5-5-10-10-10-1-1-1-3-3-1-5-5-5-10-10-10-------8-8-8-
    
     -------------------------------------------------------
     -------------------------------------------------------
     -------------------------------------------8-8-8-------
     -5-5-5-10-10-10-1-1-1-3-3-1-5-5-5-10-10-10-8-8-8-8-8-8-
     -5-5-5-10-10-10-1-1-1-3-3-1-5-5-5-10-10-10-6-6-6-8-8-8-
     -5-5-5-10-10-10-1-1-1-3-3-1-5-5-5-10-10-10-------8-8-8-
    
     ----------------------------------------|
     ----------------------------------------|
     ----------------------------------------|
     -5--5-5-5-10--10-10-10-1--1-1-1-3-3-3-1-|
     -5--5-5-5-10--10-10-10-1--1-1-1-3-3-3-1-|
     -5--5-5-5-10--10-10-10-1--1-1-1-3-3-3-1-|
        [-pm-]     [--pm--]    [-pm-]
    
    |------------------------------------------------------------------|
    |------------------------------------------------------------------|
    |------------------------------------------------------------------|
    |-5--5-5-5-10--10-10-10-1--1-1-1-3-3-3-1-6-6-6-6-6-6-6-6-6-6-6-6-5-|
    |-5--5-5-5-10--10-10-10-1--1-1-1-3-3-3-1-6-6-6-6-6-6-6-6-6-6-6-6-5-|
    |-5--5-5-5-10--10-10-10-1--1-1-1-3-3-3-1-6-6-6-6-6-6-6-6-6-6-6-6-5-|
        [-pm-]     [--pm--]    [-pm-]        [-------pm-------]
    
    thats it, have fun.
     

    Тональность:

    Нет текста!



    Назад
    Рекомендуем посмотреть другие песни исполнителя «Disturbed»:

    • Комментарии Facebook ()
    • Комментарии ВКонтакте



    Добавить в Избранное Браузера
    Сохранить здесь Очистить


    x

    0


    +
    -

    +
    -

    -

    Авторизация





    Зарегистрироваться

    M

    Дата и время

    • 17:53:36
       

    Социальные ссылки


    Наши приложения

    • Muzbank App Play Market
    • Muzbank Amazon App