MUZBANK



A Most Complete Bank Of Music Information

МУЗЫКАЛЬНО-ИНФОРМАЦИОННЫЙ БАНК








    DDisturbed • Darkness (аккорды и текст - chords & lyrics)


    388

    Print

    Видео «Darkness (Disturbed)»

    Видео клипы к песне подбираются автоматически сайтом youtube. Возможны некоторые несоответствия клипов песне.

    ↑ Спрятать рекламу ↑






     
    
    
    this song is off of their new cd. im not sure if this is correct but its close.
    theres more to the chorus and theres some part where he strums some stuff but ill figure
    that out later. if you have any corrections or the other parts email me at xxjgokou27xx@hotmail.com
    
    intro/verse/outro
    e-------------------------------------------------
    b-------------------------------------------------
    g-------------------------------------------------
    d--------3-----3-----------------3-----3--4-----4-
    a-----4-----------4-----4-----4-------------------
    e--6--------6--------6-----2--------2--------2----
    
    e-------------------------------------------------
    b-------------------------------------------------
    g-------------------------------------------------
    d--------3-----3-----------------3-----3--4-------
    a-----4-----------4-----4-----4-----------------4-
    e--6--------6--------6-----2--------2--------2----
    
    chorus
    e--0------
    b--5p0----
    g-------0-
    d---------
    a---------
    e---------
     

    Тональность:

    Нашли ошибку?



    Назад
    Рекомендуем посмотреть другие песни исполнителя «Disturbed»:

    • Комменты Fb ()
    • Комменты ВК



    Добавить в Избранное Браузера
    Сохранить здесь Очистить


    x

    0


    +
    -

    +
    -

    -

    Авторизация





    Зарегистрироваться

    M

    Дата и время

    • 00:33:13
       

    Социальные ссылки


    Наши приложения

    • Muzbank App Play Market
    • Muzbank Amazon App