MUZBANK



A Most Complete Bank Of Music Information

МУЗЫКАЛЬНО-ИНФОРМАЦИОННЫЙ БАНК

Поиск по сайту







    DDisturbed • Remember (аккорды и текст - chords & lyrics)


    302

    Print

    Видео «Remember (Disturbed)»

    Видео клипы к песне подбираются автоматически сайтом youtube. Возможны некоторые несоответствия клипов песне.

    ↑ Спрятать рекламу ↑



    Download



    Disturbed
    Remember
    Believe (2001)
    
    
    
    
    Tuning - Drop D (Db Ab Db Gb Bb Eb)
    
    INTRO (PARTIAL PALM MUTE)
    
    Eb|-------------------------|------------------------|
    Bb|-------------------------|------------------------|
    Gb|-------------------------|------------------------|
    Db|-0-00-8-0-0-0-3/7-0-3-0-3|-0-00-8-0-0-0-3/7-0-3--3|
    Ab|-0-00-8-0-0-0-3/7-0-3-0-3|-0-00-8-0-0-0-3/7-0-3--3|
    Db|-0-00-8-0-0-0-3/7-0-3-0-3|-0-00-8-0-0-0-3/7-0-3--3|
    
    Eb|--------------------------|------------------------|
    Bb|--------------------------|------------------------|
    Gb|--------------------------|------------------------|
    Db|3-0-00-8-0-0-0-3/7-0-3-0-3|-0-00-8-0-0-0-3/7-0-3--3|
    Ab|3-0-00-8-0-0-0-3/7-0-3-0-3|-0-00-8-0-0-0-3/7-0-3--3|
    Db|3-0-00-8-0-0-0-3/7-0-3-0-3|-0-00-8-0-0-0-3/7-0-3--3|
    
    VERSE
    
    Eb|----------------------------------------------------------------------|
    Bb|----------------------------------------------------------------------|
    Gb|----------------------------------------------------------------------|
    Db|----------------------------------------------------------------------|
    Ab|---------13-----------12----------------------13-----------12-------13|
    Db|-0-12-14----0-0-12-14----12-14-12-14--0-12-14----0-0-12-14----12-14---|
    
    Eb|------------------------------------------------------|
    Bb|------------------------------------------------------|
    Gb|------------------------------------------------------| X 2
    Db|---------------------------------------------10-10-10-|
    Ab|-----------12----------------------13--------10-10-10-|
    Db|-0-0-12-14----12-14-12-14--0-12-14----0-0-12-10-10-10-|
    
    CHORUS
    
    Eb|-----------------|
    Bb|-----------------|
    Gb|-----5-----------| X 5
    Db|-5-7---7-5-3-0-3-|
    Ab|-----------------|
    Db|-----------------|
    
    Eb|-----------------------------------------------|
    Bb|-------------------------------------------8/10|
    Gb|-----------------------------------------5-----| 
    Db|-5-5-3-3---------5-7---7-5-3-0-0-5-5-7-7-------|
    Ab|---------5-3-5-3-------------------------------|
    Db|-----------------------------------------------|
    
    Eb|-------------------------------------|
    Bb|-------------------------------------|
    Gb|-10----10----10----10----10----10----| 
    Db|----10----10----12----12----12----12-|
    Ab|-------------------------------------|
    Db|-------------------------------------|
    
    Eb|--------------------------------------------------|
    Bb|-12-12-12(13)/10----------------------------------|
    Gb|-----------------12-10-10-12(12.5)-14-14-14h15-14-| 
    Db|--------------------------------------------------|
    Ab|--------------------------------------------------|
    Db|--------------------------------------------------|
    
    VERSE 2 (SAME AS VERSE ONE BUT WITH PALM MUTES)
    
    Eb|----------------------------------------------------------------------|
    Bb|----------------------------------------------------------------------|
    Gb|----------------------------------------------------------------------|
    Db|----------------------------------------------------------------------|
    Ab|---------13-----------12----------------------13-----------12-------13|
    Db|-0-12-14----0-0-12-14----12-14-12-14--0-12-14----0-0-12-14----12-14---|
       |--PM--|    |---PM---|  |--------PM---------|    |--PM---|    |-PM-|
    
    Eb|------------------------------------------------------|
    Bb|------------------------------------------------------|
    Gb|------------------------------------------------------| REPEAT WITHOUT 
    Db|---------------------------------------------10-10-10-|   PALM MUTES
    Ab|-----------12----------------------13--------10-10-10-|
    Db|-0-0-12-14----12-14-12-14--0-12-14----0-0-12-10-10-10-|
       |---PM---|   |---------PM---------|  |--PM--|
    
    CHORUS
    
    CHORUS 2
    
    Eb|------------------------------------------|
    Bb|------------------------------------------|
    Gb|------------------------------------------| 
    Db|-8-8-12-12-8-8-3-3--8-8-12-12-3-3-3-3-3-3-|   
    Ab|-8-8-12-12-8-8-3-3--8-8-12-12-3-3-3-3-3-3-|
    Db|-8-8-12-12-8-8-3-3--8-8-12-12-3-3-3-3-3-3-|
    
    Eb|------------------------------------|
    Bb|------------------------------------|
    Gb|------------------------------------| 
    Db|-8-8-12-12-8-8-3-3--5-5-5-5-2-2-2-2-|   
    Ab|-8-8-12-12-8-8-3-3--5-5-5-5-2-2-2-2-|
    Db|-8-8-12-12-8-8-3-3--5-5-5-5-2-2-2-2-|
    
    INTRO (WITH MORE PALM MUTES)
    
    CHORUS X2
    
    INTRO
    
    END ON
    
    Eb|---|
    Bb|---|
    Gb|---| 
    Db|-3-|   
    Ab|-3-|
    Db|-3-|
    
    
    
    
    /Acoustic version on chords:/
    
    
    Am
    Sensation washes over me, I can't describe it
    
    Pain I felt so long ago, I don't remember
    
    Tear a hole, so I can see my devastation
                                G (optional)
    Feelings from so long ago, I don't remember
    
    
    F        Am    C
    Holding on to let them know
             Am
    What's given to me, given to me
        F             Am
    To hide behind my mask this time
         G        E
    And try to believe
    
    
    Am
    Blind your eyes to what you see, you can't embrace it
    
    Leave it well enough alone and don't remember
    
    Cut your pride and watch it bleed, you can't deny it
    
    Pain you know you can't ignore, I don't remember
    
    
    F        Am    C
    Holding on to let them know
            Am
    What's given to me, given to me
        F              Am
    To hide behind my mask this time
         G       E
    And try to believe
    
    
       F         Am        C             Am
    If I can remember to know this will conquer me
       F           Am             G       E
    If I can just walk alone and try to escape into me
    
    
    [whispered]
    Sensation washes over me, I can't describe it
    Pain I felt so long ago, I don't remember
    
    
              F       Am     C
    I'm just holding on to let them know
            Am
    What's given to me, given to me
         F             C
    To hide behind my mask this time
         G       E
    And try to believe
    
    
       F         Am        C               Am
    If I can remember, to know this will conquer me
       F           Am             G       E          Am
    If I can just walk alone and try to escape into me
    Am
    Into me
    Am
    Into me
     
    
    
    
    
    
    

    Тональность:

    Нет текста!



    Назад
    Рекомендуем посмотреть другие песни исполнителя «Disturbed»:

    • Комментарии Facebook ()
    • Комментарии ВКонтакте



    Добавить в Избранное Браузера
    Сохранить здесь Очистить


    x

    0


    +
    -

    +
    -

    -

    Авторизация





    Зарегистрироваться

    M

    Дата и время

    • 10:56:43
       

    Социальные ссылки


    Наши приложения

    • Muzbank App Play Market
    • Muzbank Amazon App