MUZBANK



A Most Complete Bank Of Music Information

МУЗЫКАЛЬНО-ИНФОРМАЦИОННЫЙ БАНК

Поиск по сайту







    DDisturbed • Remember (аккорды и текст - chords & lyrics)


    176

    Print

    Видео «Remember (Disturbed)»

    Видео клипы к песне подбираются автоматически сайтом youtube. Возможны некоторые несоответствия клипов песне.

    ↑ Спрятать рекламу ↑



    Download



     
    
    
    Remember-Disturbed
    Believe
    
    Drop Db:
    Db Ab Db Gb Bb Eb
    
    * = pm
    
    Intro: fade in then,
    
    Fig. 1 x2
    
    e-----------------------------------------------------------------
    b-----------------------------------------------------------------
    g-----------------------------------------------------------------
    d-----------------------------------------------------------------
    a-0---0-3-8---0-0-0-3-7--0-3-0-3--0---0-3-8---0-0-0-3-7---0-3---3-
    d-0---0-3-8---0-0-0-3-7--0-3-0-3--0---0-3-8---0-0-0-3-7---0-3---3-
          * *     * * * *    * * * *      * *     * * * *     * *   *
    
    e-----------------------------------------------------------------
    b-----------------------------------------------------------------
    g-----------------------------------------------------------------
    d-----------------------------------------------------------------
    a-0---0-3-8---0-0-0-3-7--0-3-0-3--0---0-3-8---0-0-0-3-7-0-0-3-0-7-
    d-0---0-3-8---0-0-0-3-7--0-3-0-3--0---0-3-8---0-0-0-3-7-0-0-3-0-7-
          * *     * * * *    * * * *      * *     * * * *   * *
    
    1st Verse: 
    
    Fig. 2
    
    e-----------------------------------------------------------------
    b-----------------------------------------------------------------
    g-----------------------------------------------------------------
    d-----------------------------------------------------------------
    a----------13-----------12-------------------------13----------12-
    d-0--12-15------0-12-15------0-12-15-0-15-0--12-15-----0-12-15----
    
    e-----------------------------------------------------------------------
    b-----------------------------------------------------------------------
    g-----------------------------------------------------------------------
    d--------------------------------------------------------------10-10-10-
    a----------13-----------12-------------------------13----------10-10-10-
    d-0--12-15------0-12-15------0-12-15-0-15-0--12-15-----0-12-15-10-10-10-
    
    Chorus:
    
    Riff A: gtr. 3 
    
    e-----------------------------------------------------------------
    b-----------------------------------------------------------------
    g---5---------------5---------------5---------------5-------------
    d-7---7-5-3-3-----7---7-5-3-3-----7---7-5-3-3-----7---7-5-3-3-----
    a-------------5-3-------------5-3-------------5-3-------------5-3-
    d-----------------------------------------------------------------
    
    Fig. 3 gtr. 1
    
    e-----------------------------------------------------------------
    b-----------------------------------------------------------------
    g-----------------------------------------------------------------
    d-8---8-8-8-8-8-----8-8-8-7---7-7-0---0-0-0-0-0-----0-0-0-0---0-0-
    a-8---8-8-8-8-8-----8-8-8-7---7-7-0---0-0-0-0-0-----0-0-0-0---0-0-
    d-8---8-8-8-8-8-----8-8-8-7---7-7-0---0-0-0-0-0-----0-0-0-0---0-0-
    
    Fig. 3a gtr. 2
    
    e-----------------------------------------------------------------
    b-6---6-6-6-6-6-----6-6-6-6---6-6-6---6-6-6-6-6-----6-6-6---------
    g---------------------------------------------------------7---7-7-
    d-----------------------------------------------------------------
    a-----------------------------------------------------------------
    d-----------------------------------------------------------------
    
    Riff A: gtr. 1
    
    e-----------------------------------------------------------------
    b---------------------------------------------------------------6-
    g-------------------------------------------------------------5---
    d-5-5-3-3-----3---5-5-3-3---------7---7-5-3-3-----3-3-5-5-7-7-----
    a---------5-3---5---------5-0-3-5-------------5-3-----------------
    d-----------------------------------------------------------------
    
    Fig. 3 gtr 2.
    
    e-----------------------------------------------------------------
    b-----------------------------------------------------------------
    g-----------------------------------------------------------------
    d-3---3-3-3-3-3---3-3-3-3-5-5-5-5-0---0-0-0-0-0-----0-0-0-0---0-0-
    a-3---3-3-3-3-3---3-3-3-3-5-5-5-5-0---0-0-0-0-0-----0-0-0-0---0-0-
    d-3---3-3-3-3-3---3-3-3-3-5-5-5-5-0---0-0-0-0-0-----0-0-0-0---0-0-
    
    Fig. 3a gtr. 3
    
    e-----------------------------------------------------------------
    b-----------------------------------------------------------------
    g-9---9-9-9-9-9---9-9-9-9-9-9-9-9-9---9-9-9-9-9-----9-9-9-7---7-7-
    d-----------------------------------------------------------------
    a-----------------------------------------------------------------
    d-----------------------------------------------------------------
    
    Riff A: gtr. 1
    
    e-----------------------------------------------------------------
    b-6-6-6-------6-6-6-------6-6-----6-6-6-------6-6-6-------6-6-----
    g-------5-5-5-------5-5-5-----5h7-------5-5-5-------5-5-5-----5h7-
    d-----------------------------------------------------------------
    a-----------------------------------------------------------------
    d-----------------------------------------------------------------
    
    Fig. 3 gtr 2.
    
    e-----------------------------------------------------------------
    b-----------------------------------------------------------------
    g---------------------------------7---7-7-7-7---------------------
    d-8---8-8-8-8-8-----8-8-8-7---7-7-0---0-0-0-0-------0-0-0-0---0-0-
    a-8---8-8-8-8-8-----8-8-8-7---7-7-5---5-5-5-5-------0-0-0-0---0-0-
    d-8---8-8-8-8-8-----8-8-8-7---7-7-0---0-0-0-0-------0-0-0-0---0-0-
    
    Fig. 3a gtr. 3
    
    e-5---5-5-5-5-5-----5-5-5-6---6-6-5---5-5-5-5---------------------
    b---------------------------------------------------6-6-6-6---5-5-
    g-----------------------------------------------------------------
    d-----------------------------------------------------------------
    a-----------------------------------------------------------------
    d-----------------------------------------------------------------
    
    Riff A: gtr. 1
    
    e-----------------------------------------------------------------
    b-----------------------------------------------------------------
    g-12-----12brp10-------------------12-----12brp10---12-----10-----
    d----------------12---10-----12-10--------------------------------
    a-----------------------------------------------------------------
    d-----------------------------------------------------------------
    
    Fig. 3 gtr. 2
    
    e-----------------------------------------------------------------
    b-----------------------------------------------------------------
    g-----------------------------------------------------------------
    d-5---5-5-5-5-5--5--5-5-5-5-5---5/7-7---7-7-7-7--7--7-7-7-7--7--7-
    a-5---5-5-5-5-5--5--5-5-5-5-5---5/7-7---7-7-7-7--7--7-7-7-7--7--7-
    d-5---5-5-5-5-5--5--5-5-5-5-5---5/7-7---7-7-7-7--7--7-7-7-7--7--7-
    
    Fig 3a. gtr. 3
    
    e-------------5--5--5-5-5-5-5---5-5-5---5---------5---------------
    b-8---8-6-6-6-----------------------------8-8-6-6---6-6-6-6--5--5-
    g-----------------------------------------------------------------
    d-----------------------------------------------------------------
    a-----------------------------------------------------------------
    d-----------------------------------------------------------------
    
    w/ Fig. 2
    
    e-----------------------------------------------------------------
    b-----------------------------------------------------------------
    g-14b~~~~~~-7b-7~~~~~--------2b-2~~~~~~~--------------------------
    d-----------------------------------------------------------------
    a------------------------------------------5b-5~~~~~~~------------
    d-----------------------------------------------------------------
    
    Verse 2: pm some notes
    
    e-----------------------------------------------------------------
    b-----------------------------------------------------------------
    g-----------------------------------------------------------------
    d-----------------------------------------------------------------
    a----------13-----------12-------------------------13----------12-
    d-0--12-15------0-12-15------0-12-15-0-15-0--12-15-----0-12-15----
    
    e-----------------------------------------------------------------------
    b-----------------------------------------------------------------------
    g-----------------------------------------------------------------------
    d--------------------------------------------------------------10-10-10-
    a----------13-----------12-------------------------13----------10-10-10-
    d-0--12-15------0-12-15------0-12-15-0-15-0--12-15-----0-12-15-10-10-10-
    
    e-----------------------------------------------------------------
    b-----------------------------------------------------------------
    g-----------------------------------------------------------------
    d-----------------------------------------------------------------
    a----------13-----------12-------------------------13----------12-
    d-0--12-15------0-12-15------0-12-15-0-15-0--12-15-----0-12-15----
    
    e-----------------------------------------------------------------
    b-----------------------------------------------------------------
    g-----------------------------------------------------------------
    d-----------------------------------------------------------------
    a----------13-----------12-------------------------13----------12-
    d-0--12-15------0-12-15------0-12-15-0-15-0--12-15-----0-12-15----
    
    Bridge:
    
    e-----------------------------------------------------------
    b------------------------------------------3----3-----------
    g------------------------------------------2----2-----------
    d-8---8-8-8-8/12---12---12-12-8--3-3-3-0---0----0-----3--0--
    a-8---8-8-8-8/12---12---12-12-8--3-3-3-0---0----0-----3--0--
    d-8---8-8-8-8/12---12---12-12-8--3-3-3-0---0----0-----3--0--
            * *
    
    e-----------------------------------------------------------
    b------------------------------------------3----3---3-3--3--
    g------------------------------------------2----2---2-2--2--
    d-8---8-8-8-8/12---12---12-12-8--3-3-3-0---0----0---0-0--0--
    a-8---8-8-8-8/12---12---12-12-8--3-3-3-0---0----0---0-0--0--
    d-8---8-8-8-8/12---12---12-12-8--3-3-3-0---0----0---0-0--0--
            * *
    
    e-----------------------------------------------------------
    b------------------------------------------3----3-----------
    g------------------------------------------2----2-----------
    d-8---8-8-8-8/12---12---12-12-8--3-3-3-0---0----0---3-3--0--
    a-8---8-8-8-8/12---12---12-12-8--3-3-3-0---0----0---3-3--0--
    d-8---8-8-8-8/12---12---12-12-8--3-3-3-0---0----0---3-3--0--
            * *
    
    e-----------------------------------------------------------
    b-----------------------------------------------------------
    g-----------------------------------------------------------
    d-5---5--5---5---5------5--5---2---2--2---2---2----2-2------
    a-5---5--5---5---5------5--5---2---2--2---2---2----2-2--12-
    d-5---5--5---5---5------5--5---2---2--2---2---2----2-2--12-
    
    Interlude: 
    
    x7
    e---------------------------------
    b---------------------------------
    g---------------------------------
    d---------------------------------
    a-0-0-0-3-8-8-0-0-0-3-7-7-0-3-0-3-
    d-0-0-0-3-8-8-0-0-0-3-7-7-0-3-0-3-
    
    then
    
    e---------------------------------
    b---------------------------------
    g---------------------------------
    d---------------------------------
    a-0-0-0-3-8-8-0-0-5-3-----3-------
    d-0-0-0-3-8-8-0-0-5-3-----3-------
    
    Outro Chorus: Fig 3 & 3a and Riff A w/
    
    gtr. 5
    
    e-5-8-5-----------5-5-5-----------5-8-5-----------5-5-5-----------
    b-------8-6-6-----------8-6-6-----------8-6-6-----------8-6-6-----
    g-------------7-5-------------7-5-------------7-5-------------7-5-
    d-----------------------------------------------------------------
    a-----------------------------------------------------------------
    d-----------------------------------------------------------------
    
    e---------------------------------5-8-5-------------------5-5-8/10
    b-8-8-6-6---------8-8-6-6---------------8-6-6-----6-6-8-8---------
    g---------7---5-7---------7---5-7-------------7-5-----------------
    d-----------7---------------7-------------------------------------
    a-----------------------------------------------------------------
    d-----------------------------------------------------------------
    
    e-13-13-13-------13-13-13-------13-13-------13-13-13-----13-13-13-
    b----------13-------------13----------13-15----------15-----------
    g-----------------------------------------------------------------
    d-----------------------------------------------------------------
    a-----------------------------------------------------------------
    d-----------------------------------------------------------------
    
    e-------13-13----15b~~~rp13-----------------15b~~~rp-13-15~~-13---
    b-15----------13------------15~~~-13--15-13-----------------------
    g-----------------------------------------------------------------
    d-----------------------------------------------------------------
    a-----------------------------------------------------------------
    d-----------------------------------------------------------------
    
    e-17b~~~~~~~~~~~~~~~~~--------------------------------------------
    b----------------------13b~~~~~~~~~~~~~~~~~~~~~-------------------
    g-----------------------------------------------------------------
    d-----------------------------------------------------------------
    a-----------------------------------------------------------------
    d-----------------------------------------------------------------
    
    Outro:
    
    x3
    e-----------------------------------------------------------------
    b-----------------------------------------------------------------
    g-----------------------------------------------------------------
    d-----------------------------------------------------------------
    a-0---0-3-8---0-0-0-3-7--0-3-0-3--0---0-3-8---0-0-0-3-7---0-3---3-
    d-0---0-3-8---0-0-0-3-7--0-3-0-3--0---0-3-8---0-0-0-3-7---0-3---3-
          * *     * * * *    * * * *      * *     * * * *     * *   *
    
    then
    
    e-----------------------------------------------------------------
    b-----------------------------------------------------------------
    g-----------------------------------------------------------------
    d-----------------------------------------------------------------
    a-0---0-3-8---0-0-0-3-7--0-3-0-3--0---0-3-8---0-0-0-3-7---0-3-----
    d-0---0-3-8---0-0-0-3-7--0-3-0-3--0---0-3-8---0-0-0-3-7---0-3-----
          * *     * * * *    * * * *      * *     * * * *     
    
    that’s all
    
    
    trevor jones
    timmy91199@yahoo.ca
     

    Тональность:

    Нет текста!



    Назад
    Рекомендуем посмотреть другие песни исполнителя «Disturbed»:

    • Комментарии Facebook ()
    • Комментарии ВКонтакте



    Добавить в Избранное Браузера
    Сохранить здесь Очистить


    x

    0


    +
    -

    +
    -

    -

    Авторизация





    Зарегистрироваться

    M

    Дата и время

    • 23:00:23
       

    Социальные ссылки


    Наши приложения

    • Muzbank App Play Market
    • Muzbank Amazon App