MUZBANK



A Most Complete Bank Of Music Information

МУЗЫКАЛЬНО-ИНФОРМАЦИОННЫЙ БАНК

Поиск по сайту







    DDisturbed • Rise (аккорды и текст - chords & lyrics)


    172

    Print

    Видео «Rise (Disturbed)»

    Видео клипы к песне подбираются автоматически сайтом youtube. Возможны некоторые несоответствия клипов песне.

    ↑ Спрятать рекламу ↑



    Download



     
    
    
    Rise-Disturbed
    Believe
    
    Drop Db:
    Db Ab Db Gb Bb Eb
    
    
    Intro: Fig. 1 w/ chorus/vibrato effect
    
    gtr. 1
    
    e-------------------------------------------------------------------
    b-------------------------------------------------------------------
    g-------------------------------------------------------------------
    d-------------------------------------------------------------------
    a-------------------------------------------------------------------
    d-10h12-0-12-0-12-0-12-12-10h12-10-10h12-0-12-0-12-0-12-12-10h12-10-
    
    e-------------------------------------------------------------------
    b-------------------------------------------------------------------
    g-------------------------------------------------------------------
    d-------------------------------------------------------------------
    a-------------------------------------------------------------------
    d-10h12-0-12-0-12-0-12-12-10h12-10-6-6-6-6-6-6-/-15-15-15-10-10-10--
    
    then,
    
    gtr. 1 and Fig. 1a (gtr. 2) (gtr. 1 plays lower notes)
    
    e-------------------------------------------------------------------
    b-------------------------------------------------------------------
    g-------------------------------------------------------------------
    d-10h12-0-12-0-12-0-12-12-10h12-10-10h12-0-12-0-12-0-12-12-10h12-10-
    a-------------------------------------------------------------------
    d-10h12-0-12-0-12-0-12-12-10h12-10-10h12-0-12-0-12-0-12-12-10h12-10-
    
    e-------------------------------------------------------------------
    b-------------------------------------------------------------------
    g------------------------------------------------10-10-10-----------
    d-10h12-0-12-0-12-0-12-12-10h12-10-6-6-6-6-6-6-/----------10-10-10--
    a-------------------------------------------------------------------
    d-10h12-0-12-0-12-0-12-12-10h12-10-6-6-6-6-6-6-/-15-15-15-10-10-10--
    
    Verses: (V2&3 play Fig. 1a too)
    x3
    e-------------------------------------------------------------------
    b-------------------------------------------------------------------
    g-------------------------------------------------------------------
    d-------------------------------------------------------------------
    a-10h12---12---12---12-12-10h12-10-10h12---12---12---12-12-10h12-10-
    d-10h12-0-12-0-12-0-12-12-10h12-10-10h12-0-12-0-12-0-12-12-10h12-10-
    
    e-------------------------------------------------------------------
    b-------------------------------------------------------------------
    g-------------------------------------------------------------------
    d-------------------------------------------------------------------
    a-10h12---12---12---12-12-10h12-10-6-6-6-6-6-6-/-15-15-15-10-10-10--
    d-10h12-0-12-0-12-0-12-12-10h12-10-6-6-6-6-6-6-/-15-15-15-10-10-10--
    
    x2, pm throughout
    e--------------------------------------------------------------
    b--------------------------------------------------------------
    g--------------------------------------------------------------
    d--------------------------------------------------------------
    a-------0-----------------0------------0-----------------0-----
    d-0-0-0-0-------------0-0-0------0-0-0-0-------------0-0-0-----
    
    Chorus:
    
    e-------------------------------------------
    b-------------------------------------------
    g-7----7--10-10--1010--7----7--10-10--1010--
    d-7----7--10-10--1010--7----7--10-10--1010--
    a-5----5---8--8---8-8--5----5---8--8---8-8--
    d-------------------------------------------
    
    e---------------------------------------------
    b---------------------------------------------
    g-7----7--10-10--1010-------------------------
    d-7----7--10-10--1010-------------------------
    a-5----5---8--8---8-8--7----7-------------5---
    d----------------------7----7--7-7-7-7-7--5---
    
    e-------------------------------------------
    b-------------------------------------------
    g-7----7--10-10--1010--7----7--10-10--1010--
    d-7----7--10-10--1010--7----7--10-10--1010--
    a-5----5---8--8---8-8--5----5---8--8---8-8--
    d-------------------------------------------
    
    e---------------------------------------------
    b---------------------------------------------
    g-7----7--10-10--1010-------------------------
    d-7----7--10-10--1010-------------------------
    a-5----5---8--8---8-8--7----7-------------10--
    d----------------------7----7--7-7-7-7-7--10--
    
    Bridge:
    
    e-------------------------------------------
    b-------------------------------------------
    g-------------------------------------------
    d--------------------------------------12---
    a-12------10---12-10---12------10---12------
    d--8-------------------12-------------------
    
    e-------------------------------------------
    b-------------------------------------------
    g-------------------------------------------
    d-------------------------------------------
    a-12------10---12-10---12------10---12------
    d--8-------------------12--------------12---
    
    e-------------------------------------------
    b-------------------------------------------
    g-------------------------------------------
    d--------------------------------------12---
    a-12------10---12-10---12------10---12------
    d--8-------------------12-------------------
    
    1st ending, pm
    e-----------------------------------------------
    b-----------------------------------------------
    g-----------------------------------------------
    d-----------------------------------------------
    a-3-3-3-3-3-3-3-3-3-3-3-3-8-8-8-8-8-8-8-8-8-----
    d-3-3-3-3-3-3-3-3-3-3-3-3-8-8-8-8-8-8-8-8-8-----
    
    2nd ending, pm
    e-----------------------------------------------
    b-----------------------------------------------
    g-----------------------------------------------
    d-----------------------------------------------
    a-3-3-3-3-3-3-3-3-3-3-3-3-8-8-8-8-8-8-8-8-8-8-8-
    d-3-3-3-3-3-3-3-3-3-3-3-3-8-8-8-8-8-8-8-8-8-8-8-
    
    Interlude:
    
    x3
    e-------------------------------------------------
    b-------------------------------------------------
    g-------------------------------------------------
    d-------------------------------------------------
    a-------------------------------------------------
    d-0---0---3-1-0---0---1-3-0---0---3-1-0-1-0-1-0-3-
    
    e-------------------------------------------------
    b-------------------------------------------------
    g-------------------------------------------------
    d-------------------------------------------------
    a-------------------------------------------------
    d-0---0---3-1-0---0---1-3-0---0---3-1-0-1-0-15---
    
    x3
    e-------------------------------------------------
    b-------------------------------------------------
    g-------------------------------------------------
    d-------------------------------------------------
    a-------------------------------------------------
    d-0---0---3-1-0---0---1-3-0---0---3-1-0-1-0-1-0-3-
    
    e-------------------------------------------------
    b-------------------------------------------------
    g-------------------------------------------------
    d-------------------------------------------------
    a-------------------------------------------------
    d-0---0---3-1-0---0---1-3-0---0---3-1-0-1-0-15---
    
    e-------------------------------------------------
    b-------------------------------------------------
    g-------------------------------------------------
    d-------------------------8-8-8-8-8-8-8-8-8-10----
    a-8-8-8-8-8-8-8-8-8-8-8-8-8-8-8-8-8-8-8-8-8-10----
    d-8-8-8-8-8-8-8-8-8-8-8-8-8-8-8-8-8-8-8-8-8-10----
    3rd ending
    e-----------------------------------------------
    b-----------------------------------------------
    g-----------------------------------------------
    d-------------------------8-8-8-8-8-8-8-8-8-10--
    a-3-3-3-3-3-3-3-3-3-3-3-3-8-8-8-8-8-8-8-8-8-10--
    d-3-3-3-3-3-3-3-3-3-3-3-3-8-8-8-8-8-8-8-8-8-10--
    
    after 3rd chorus
    
    x3
    e-------------------------------------------------
    b-------------------------------------------------
    g-------------------------------------------------
    d-------------------------------------------------
    a-8-8-8-8-8-8---8-8-8-8-8-------------------------
    d-8-8-8-8-8-8---8-8-8-8-8-0-0-0-0-0-0---0-0-0-0-0-
    
    e-------------------------------------------------
    b-------------------------------------------------
    g-------------------------------------------------
    d-------------------------------------------------
    a-3-3-3-3-3-3-3-3-3-3-3-3-8-8-8-8-8-8-8-8-8-8-8-8-
    d-3-3-3-3-3-3-3-3-3-3-3-3-8-8-8-8-8-8-8-8-8-8-8-8-
    
    
    that’s all
    
    *from the Disturbed tab book*
    
    trevor jones
    timmy91199@yahoo.ca
     

    Тональность:

    Нет текста!



    Назад
    Рекомендуем посмотреть другие песни исполнителя «Disturbed»:

    • Комментарии Facebook ()
    • Комментарии ВКонтакте



    Добавить в Избранное Браузера
    Сохранить здесь Очистить


    x

    0


    +
    -

    +
    -

    -

    Авторизация





    Зарегистрироваться

    M

    Дата и время

    • 11:40:40
       

    Социальные ссылки


    Наши приложения

    • Muzbank App Play Market
    • Muzbank Amazon App