MUZBANK



A Most Complete Bank Of Music Information

МУЗЫКАЛЬНО-ИНФОРМАЦИОННЫЙ БАНК

Поиск по сайту







    DDisturbed • Voices (аккорды и текст - chords & lyrics)


    166

    Print

    Видео «Voices (Disturbed)»

    Видео клипы к песне подбираются автоматически сайтом youtube. Возможны некоторые несоответствия клипов песне.

    ↑ Спрятать рекламу ↑



    Download



     
    
    
    Song Title: Voices
    Artist: Disturbed
    Album Title: The Sickness
    ()-Harmonic
    P-Pull-Off
    Tuning-C#G#C#F#A#D#
    
    Riff A with flanger
    -2-4-2-4-2-4-
    -------------
    -------------
    -------------
    -------------
    -------------
    
    Riff B
    --------------------
    --------------------
    --------------------
    --------------------
    -8-9-8-9-8-9-8-9-3--
    -8-9-8-9-8-9-8-9-3--
    
    Riff C
    --------------------
    --------------------
    --------------------
    --------------------
    -8-9-8-9-8-9-8-9-(3)
    -8-9-8-9-8-9-8-9-(3)
    
    Riff D
    -------------------
    -------------------
    -------------------
    -------------------
    -------------------
    -8-9-8-9-8-9-8-9-3-
    
    Riff E
    -------------------
    -------------------
    -------------------  On 
    ------------------- -10- 
    ------------------- Bend
    -8-9-8-9-8-9-8-9-10 
    
    Riff F
    -------------------
    -------------------
    -------------------
    -------------------
    -------------------
    -3-2-5-0-2-3-------
    
    Riff G
    -------------------
    -------------------
    -------------------
    -------------------
    -------------------
    -8-9-8-9-8-9-8-9---
    
    Riff H
    -------------------
    -------------------
    -------------------
    -------------------
    -3-2-7-5-3---------
    -3-2-7-5-3---------
    
    Riff I
    -------------------
    -------------------
    -------------------
    -5-P-0-3-P-0-2-P-O-
    -------------------
    -------------------
    
    Riff J
    -------------------
    -------------------
    -------------------
    -(7)---------------
    -------------------
    -------------------
     

    Тональность:

    Нет текста!



    Назад
    Рекомендуем посмотреть другие песни исполнителя «Disturbed»:

    • Комментарии Facebook ()
    • Комментарии ВКонтакте



    Добавить в Избранное Браузера
    Сохранить здесь Очистить


    x

    0


    +
    -

    +
    -

    -

    Авторизация





    Зарегистрироваться

    M

    Дата и время

    • 22:51:41
       

    Социальные ссылки


    Наши приложения

    • Muzbank App Play Market
    • Muzbank Amazon App