MUZBANK



A Most Complete Bank Of Music Information

МУЗЫКАЛЬНО-ИНФОРМАЦИОННЫЙ БАНК

Поиск по сайту







    DDo As Infinity • Mellow Amber (аккорды и текст - chords & lyrics)


    238

    Print

    Видео «Mellow Amber (Do As Infinity)»

    Видео клипы к песне подбираются автоматически сайтом youtube. Возможны некоторые несоответствия клипов песне.

    ↑ Спрятать рекламу ↑



    Download


     
    
    
    Do As Infinity
    Mellow Amber
    Standard Tuning
    Tabbed by Alex Fragd (mavrick_45)
    Mavrick_45@sugarray.com
    
    
    This is the most difficult DAI song I have ever tabbed because almost no one part
    is exactly the same as another, and I’ll tell you right now that it is definitely
    not 100% correct.
    
    
    
    G------------------------------------------------------------
    D------------------------------------------------------------
    A----4-4--------------14-12-16--4-4-------------14-12-16---
    E---------4-4---5/12------------------4-4---5/12-------------
    
    G---------------------------------------------------
    D---------------------------------------------------
    A----4-4-------------2---4-4------------14-12-16---
    E----------4-4—5-5-5-----------4-4—5-/12------------
    
    G-----------------------------------------------------------
    D-----------------------------------------------------------
    A---19-19-18-18-16-16-14-14-12-11-12-11-7-72-0-2-3-0-3-5---
    E-----------------------------------------------------------
    
    G---------------------------------------------------------------4-2-0-----
    D----------------------------------------17---------------------------2---
    A---7-7-2-2-3-3-3-3-5-7-7-2-2-3/15-17-15----10-10-9-9-7-7-5-5-4---------2-
    E-------------------------------------------------------------------------
    
    G--------------------------------------------------------------
    D--------------------------------------------------------------
    A---33333333—--5555---3333---2222---6666---777-7-9-10-9-7-5—--
    E--------------------------------------------------------------
    
    G-------------------------------------------------
    D-------------------------------------------------
    A---3333---5555---7777---2222---3333---2222---3---
    E-------------------------------------------------
    
    G-----------------------------------------------------------------------------
    D-----------------------------------------------------------------------------
    A---/-4-4-------------14-12-16--4-4------------14-12-16---rest-----14-12-16-
    E----------4-4---5/12-----------------4-4---5/12------------------12----------
    
    G-------------------------------------------------------------
    D------------------------------14-------14--------------------
    A---19-19-18-18-16-16-14-14-12----14-12----12---2-3-0-3-5---
    E-------------------------------------------------------------
    
    
    G----------------------------------------------------------------------
    D----------------------------------------17----------------7/-14-12---
    A---7-7-2-2-3-3-3-3-5-7-7-2-2-3/15-17-15----10-10-9-9-7/10-------------
    E----------------------------------------------------------------------
    
    G-----4-2-0-----------------------------------------------------------------
    D-----------2---------------------------------------------------------------
    A---4---------2---3333333—--5555---3333---2222---6666---777-7-9-10-9-7-5—--
    E---------------------------------------------------------------------------
    
    
    G--------------------------------------------------
    D--------------------------------------------------
    A---3333---5555---7777---2222---3333---2222---3/---
    E--------------------------------------------------
    
    G-----------------------------------------------------------4-2-0-----
    D--------------------------12-14-12----12-14---------------------2---
    A---00-22-33-22-00-22-3/14----------14--------00-22-33-22-4---------2-
    E---------------------------------------------------------------------
    
    Rest
    
    G-------------------------------------------------12---
    D---14---16---17---19---14---12---13---14---16----------
    A----------------------------------------------14-------
    E-------------------------------------------------------
    
    
    G---------------------------------------------------------------
    D---------------------------------------------------------------
    A---33333333—--5555---3333---2222---6666---7/19-19-19-17-17---
    E---------------------------------------------------------------
    
    G------------------------------------------------------------------------
    D----------------------------------------------0-------------------------
    A---3333--5555--7-----2222—3333—2222-------0-2----3~-5~-7~-2~-3~-2~------
    E----------------000-----------------0-2-3--------------------------0~~~-
     

    Тональность:

    Нет текста!



    Назад
    Рекомендуем посмотреть другие песни исполнителя «Do As Infinity»:

    • Комментарии Facebook ()
    • Комментарии ВКонтакте



    Добавить в Избранное Браузера
    Сохранить здесь Очистить


    x

    0


    +
    -

    +
    -

    -

    Авторизация





    Зарегистрироваться

    M

    Дата и время

    • 17:12:09
       

    Социальные ссылки


    Наши приложения

    • Muzbank App Play Market
    • Muzbank Amazon App