MUZBANK



A Most Complete Bank Of Music Information

МУЗЫКАЛЬНО-ИНФОРМАЦИОННЫЙ БАНК

Поиск по сайту







    DDonovan • Catch The Wind (аккорды и текст - chords & lyrics)


    333

    Print

    Видео «Catch The Wind (Donovan)»

    Видео клипы к песне подбираются автоматически сайтом youtube. Возможны некоторые несоответствия клипов песне.

    ↑ Спрятать рекламу ↑





    Capo on 3rd fret:
    
    INTRO:
    
    Cadd9 ^ ^ ! ^ ^ ! Fadd2 ^ ! G ^ ! Cadd9
    ||-------3--3--3-|-------3--3--|------3--3----|-----3--3-----|------3-3-3-3-|
    ||-------3--3--3-|----3--3--3--|------3--3----|-----3--3-----|------3-3-3-3-|
    ||-------0--0--0-|----0--0--0--|------2--2----|-----0--0-----|------0-0-0-0-|
    ||---------------|-------------|--3---------2-|-0------------|--------------|
    ||---3-----------|-------------|--------------|-----------2--|-3------------|
    ||---------------|-------------|--------------|--------------|--------------|
    
    
    Fadd2 ^ ! Cadd9 ^ ! ^ ! !
    ||------3--3----|-----3-3-3-3--|------3-3----3-|
    ||------3--3----|-----3-3-3-3--|------3-3----3-|
    ||------2--2----|-----0-0-0-0--|------0-0----0-|
    ||--3---------2-|--------------|-0h2-----------|
    ||--------------|-3------------|-----------3---|
    ||--------------|--------------|---------------|
    In the
    
    
    Cadd9 ^ ^ ! ^ ^ ! Fadd2 ^ ! ^ ! ^ !
    ||-------3--3--3--|------3--3----|------3-3-3-3--|------3--3-----|
    ||-------3--3--3--|---3--3--3----|------3-3-3-3--|------3--3-----|
    ||---0---0--0--0--|---0--0--0----|------2-2-2-2--|--2---2--2-----|
    ||----------------|------------2-|--3------------|------------3--|
    ||----------------|--------------|---------------|---------------|
    ||----------------|--------------|---------------|---------------|
    chilly hours and minutes of un-
    feel y o u all a round me and to
    sundown pales the sky, I want
    me to love you now Would be
    
    
    Cadd9 ^ ! ^ ! F ^ ^ ! ^ ! ^ !
    ||-------3--3----|-----3--3----|------1--1-1---|----1-1-1-1---|
    ||-------3--3----|-----3--3----|------1--1-1---|----1-1-1-1---|
    ||-------0--0----|-----0--0----|------2--2-2---|----2-2-2-2---|
    ||--2----------3-|-2-----------|--3----------2-|--------------|
    ||---------------|-----------3-|---------------|-3------------|
    ||---------------|-------------|---------------|--------------|
    cer-tain -ty, I want to be
    take your h a n d a long the sand
    to hide a-w h i l e behind your smile
    the sweetest thing t'would make me sing
    
    
    Cadd9 ^ ! ^ ! ^ ! F ^ ! G ^ !
    ||-------3-3-3-3-|-----3--3----|------3--3-----|-----1--1-----|
    ||-------3-3-3-3-|-----3--3----|------3--3-----|-----1--1-----|
    ||-------0-0-0-0-|-----0--0----|------2--2-----|-----2--2-----|
    ||-0h2-----------|-2-----------|--3---------2--|--0-----------|
    ||---------------|-----------3-|---------------|-----------2--|
    ||---------------|-------------|---------------|--------------|
    In the w a r m hold of your loving
    Ah but I may as well try and catch the
    And every - where I'd look your eyes I'd
    Ah but I may as well try and catch the
    
    ____________________________________________________________
    | 1. |
    Cadd9 ^ ! ^ ! ^ ^ ! ^ ! G ^
    ||-------3-3-3-3-|-----3-3-3-3--|--3--3-3-3-3--|-------------|
    ||-------3-3-3-3-|--3--3-3-3-3--|--3--3-3-3-3--|-------------|
    ||-------0-0-0-0-|--0--0-0-3-3--|--0--0-0-0-0--|------------:|
    ||---------------|--------------|--0--0-0-0-0--|-------------|
    ||-3-------------|--------------|--2--2-2-2-2--|---2--0--2---|
    ||---------------|--------------|--3--3-3-3-3--|-------------|
    mind To
    find For
    
    ________________________________________________________________
    | 2. |
    Cadd9 ^ ! ^ ! F ^ ! Cadd9 ^ ! ^ !
    ||-------3-3-3-3--|-----3--3-----|------3-3-3-3--|------3-3----3-|
    ||-------3-3-3-3--|-----3--3-----|------3-3-3-3--|------3-3----3-|
    ||-------0-0-0-0--|-----2--2-----|------0-0-0-0--|------0-0----0-|
    ||----------------|-3---------2--|--0------------|-0h2-----------|
    ||--3-------------|--------------|---------------|-----------3---|
    ||----------------|--------------|---------------|---------------|
    wind When
    wind
    
    BRIDGE: (Play this first measure instead of this ^^^^^ last Cadd9)
    
    F Em Am Dsus4
    ||---------|------|------|------|------|------|------|------|------|
    ||---------|------|------|------|------|------|------|------|------|
    ||---------|------|------|------|------|------|------|------|------|
    ||----0--2-|------|------|------|------|------|------|------|------|
    ||-3-------|------|------|------|------|------|------|------|------|
    ||---------|------|------|------|------|------|------|------|------|
    
    Diddy di dee diddy diddy diddy diddy, diddy diddy, dee dee
    
    G Cadd9 Fadd2 Cadd9
    ||----3-3-3-3-|----3-3-3-3-|----3-3-3-3-|----3-3-3-3-|
    ||----3-3-3-3-|----3-3-3-3-|----3-3-3-3-|----3-3-3-3-|
    ||----0-0-0-0-|----0-0-0-0-|----2-2-2-2-|----0-0-0-0-|
    ||-0----------|-2----------|-3----------|-2----------|
    ||------------|------------|------------|------------|
    ||------------|------------|------------|------------|
    dee When
    

    Тональность:

    Нет текста!



    Назад
    Рекомендуем посмотреть другие песни исполнителя «Donovan»:

    • Комментарии Facebook ()
    • Комментарии ВКонтакте



    Добавить в Избранное Браузера
    Сохранить здесь Очистить


    x

    0


    +
    -

    +
    -

    -

    Авторизация





    Зарегистрироваться

    M

    Дата и время

    • 05:13:40
       

    Социальные ссылки


    Наши приложения

    • Muzbank App Play Market
    • Muzbank Amazon App