MUZBANK



A Most Complete Bank Of Music Information

МУЗЫКАЛЬНО-ИНФОРМАЦИОННЫЙ БАНК








    DDope • Bitch (аккорды и текст - chords & lyrics)


    359

    Print

    Видео «Bitch (Dope)»

    Видео клипы к песне подбираются автоматически сайтом youtube. Возможны некоторые несоответствия клипов песне.

    ↑ Спрятать рекламу ↑





     
    
    
    Song: Bitch 
    Band: Dope 
    CD: Group Theropy 
    Tunning: Drop d (D, A, D, G, B, E,) 
    
    intro 
    |-------------------------------| 
    |-------------------------------| 
    |-------------------------------| 
    |-1-0---1-0---1-0-1-0-1-0---0 1-| 
    |-1-0---1-0---1-0-1-0-1-0---0 1-| 
    |-1-0---1-0---1-0-1-0-1-0---0 1-| 
    
    Verse 
    |----------| 
    |----------| 
    |----------| 
    |----------| 
    |----------| 
    |-6/---1-0-| 
    
    
    Chorus 
    |-------------------------------| 
    |-------------------------------| 
    |-------------------------------| 
    |-1-0---1-0---1-0-1-0-1-0---0 1-| 
    |-1-0---1-0---1-0-1-0-1-0---0 1-| 
    |-1-0---1-0---1-0-1-0-1-0---0 1-|
     

    Тональность:

    Нет текста!



    Назад
    Рекомендуем посмотреть другие песни исполнителя «Dope»:

    • Комменты Fb ()
    • Комменты ВК



    Добавить в Избранное Браузера
    Сохранить здесь Очистить


    x

    0


    +
    -

    +
    -

    -

    Авторизация





    Зарегистрироваться

    M

    Дата и время

    • 04:05:24
       

    Социальные ссылки


    Наши приложения

    • Muzbank App Play Market
    • Muzbank Amazon App