MUZBANK



A Most Complete Bank Of Music Information

МУЗЫКАЛЬНО-ИНФОРМАЦИОННЫЙ БАНК

Поиск по сайту







    DDope • Everything Sucks (аккорды и текст - chords & lyrics)


    194

    Print

    Видео «Everything Sucks (Dope)»

    Видео клипы к песне подбираются автоматически сайтом youtube. Возможны некоторые несоответствия клипов песне.

    ↑ Спрятать рекламу ↑



    Download



     
    
    
    name: Mason Schneider
    
    artist: Dope
    
    SongTitle: Everything Sucks
    
    Tabs: Dope
    Everything Sucks
    From the album Felons and Revolutionaries
    Tab by maseman56@hotmail.com
    If you have any questions Feel free to e-mail me.
    
    Dropped D tuning (D,A,D,G,b,e)
    
    
    Intro consists of  synthesizer sound
    then guitar  comes in with this:
    
    Intro, Bridge (With metal Distortion):
    e:-------------------------------
    b:-------------------------------
    g:-------------------------------
    d:-xx-x-2-xx-x-3-xx-6------------
    a:-xx-x-2-xx-x-3-xx-6------------
    d:-xx-x-2-xx-x-3-xx-6------------
    
    Verse (With Metal Distortion):
    e:-----------------------
    b:-----------------------
    g:-----------------------
    d:-xxxx-3-0-xxxx-x-xx----
    a:-xxxx-3-0-xxxx-x-xx----
    d:-xxxx-3-0-xxxx-x-xx----
    
    Variation to Verse Riff (With Metal Distortion):
    e:----------------------------
    b:----------------------------
    g:----------------------------
    d:-xxxx-6-0--5-0--3-0-xxx-x---
    a:-xxxx-6-0--5-0--3-0-xxx-x---
    d:-xxxx-6-0--5-0--3-0-xxx-x---        then go back to regular Verse
    
    Chorus (With Metal Distortion):
    e:----------------------
    b:----------------------
    g:----------------------
    d:-8--8-4-4--6--6-2-1---
    a:-8--8-4-4--6--6-2-1---
    d:-8--8-4-4--6--6-2-1---      
    
    After 2nd Chorus go back to Intro Riff a Few times
    Then Go to Verse Riff +Verse Variation to end
     

    Тональность:

    Нет текста!



    Назад
    Рекомендуем посмотреть другие песни исполнителя «Dope»:

    • Комментарии Facebook ()
    • Комментарии ВКонтакте



    Добавить в Избранное Браузера
    Сохранить здесь Очистить


    x

    0


    +
    -

    +
    -

    -

    Авторизация





    Зарегистрироваться

    M

    Дата и время

    • 19:05:35
       

    Социальные ссылки


    Наши приложения

    • Muzbank App Play Market
    • Muzbank Amazon App