MUZBANK



A Most Complete Bank Of Music Information

МУЗЫКАЛЬНО-ИНФОРМАЦИОННЫЙ БАНК

Поиск по сайту







    DDope • Take Your Best Shot (аккорды и текст - chords & lyrics)


    144

    Print

    Видео «Take Your Best Shot (Dope)»

    Видео клипы к песне подбираются автоматически сайтом youtube. Возможны некоторые несоответствия клипов песне.

    ↑ Спрятать рекламу ↑



    Download



     
    
    
    SONG: Take Your Best Shot
    	     BAND: Dope
    	    ALBUM: Life
       TRANSCRIBED BY: Chris Frazier (btabmaster@hotmail.com)
    	     DATE: 10-05-01
                  URL: www.angelfire.com/goth/btab/
    	    EMAIL: btabmaster@hotmail.com
     
    	TUNING: Drop D (D A D G B E)
    
         Riff 1:
        E|---------------------------|
        B|---------------------------|
        G|---------------------------|
        D|-3-0-0-0-0--3-0-0-0-0--5-6-|
        A|-3-0-0-0-0--3-0-0-0-0--5-6-|
        D|-3-0-0-0-0--3-0-0-0-0--5-6-|
         PM-          -          - -
    
         Riff 2:
        E|-----------------|
        B|-----------------|
        G|-----------------|
        D|-----6-----------|
        A|-3-5---5---------|
        D|---------0-0-3-5-|
    
         Riff 3:
        E|-------------------------------|
        B|-------------------------------|
        G|-------------------------------|
        D|-0--0-3-0-0--3--0--0-3-0-0--/6-|
        A|-0--0-3-0-0--3--0--0-3-0-0--/6-|
        D|-0--0-3-0-0--3--0--0-3-0-0--/6-|
    
         Riff 4:
        E|----------------------------------------------------------|
        B|----------------------------------------------------------|
        G|----------------------------------------------------------|
        D|-0-------------3-------------3-------------3--0--6--5--3--|
        A|-0-------------3-------------3-------------3--0--6--5--3--|
        D|-0-0-0-0-0-0-0-3-0-0-0-0-0-0-3-0-0-0-0-0-0-3--0--6--5--3--|
         PM  - - - - - -   - - - - - -   - - - - - -
    
         Riff 5:
        E|-------------|
        B|-------------|
        G|-------------|
        D|-3-0-x-x-x-x-|
        A|-3-0-x-x-x-x-|
        D|-3-0-x-x-x-x-|
    
         Riff 6: (w/ some weird effect)
        E|---------|
        B|---------|
        G|---------|
        D|---6---6-|
        A|-5---5---|
        D|---------|
    
         Riff 7:
        E|----------------------------------------------|
        B|----------------------------------------------|
        G|----------------------------------------------|
        D|-0-0--0-1-0-0-0-0--0-1-0-0-0-0--0-1-0-0-0-0---|
        A|-0-0--0-1-0-0-0-0--0-1-0-0-0-0--0-1-0-0-0-0---|
        D|-0-0--0-1-0-0-0-0--0-1-0-0-0-0--0-1-0-0-0-0---|
         PM- -  -       - -  -       - -  -       - -
    
         Riff 8:
        E|---|
        B|---|
        G|---|
        D|-0-| Let ring...
        A|-0-|
        D|-0-|
     

    Тональность:

    Нет текста!



    Назад
    Рекомендуем посмотреть другие песни исполнителя «Dope»:

    • Комментарии Facebook ()
    • Комментарии ВКонтакте



    Добавить в Избранное Браузера
    Сохранить здесь Очистить


    x

    0


    +
    -

    +
    -

    -

    Авторизация





    Зарегистрироваться

    M

    Дата и время

    • 00:54:16
       

    Социальные ссылки


    Наши приложения

    • Muzbank App Play Market
    • Muzbank Amazon App