MUZBANK



A Most Complete Bank Of Music Information

МУЗЫКАЛЬНО-ИНФОРМАЦИОННЫЙ БАНК

Поиск по сайту







    DDown • Rehab (аккорды и текст - chords & lyrics)


    334

    Print

    Видео «Rehab (Down)»

    Видео клипы к песне подбираются автоматически сайтом youtube. Возможны некоторые несоответствия клипов песне.

    ↑ Спрятать рекламу ↑



    Download


     
    
    
    Title: Rehab
    Artist: Down
    Ablum: Nola
    
    
    This is my first attempt in tabbing a song so go easy on me. This will basically give you the idea of it.
    
    | ----------- |
    |------------ |
    |------------ |
    |------------ |
    | ------12-- |
    | -0-0--12-- |
      ....
    
    3 times
    | ---------------------------------------------------------------------------------- |
    | ---------------------------------------------------------------------------------- |
    | ---------------------------------------------------------------------------------- |
    | --5-h-7-------------7------------5--7---------------------5----------------------- |
    | -------------0--0---------0--0--------------0--5-h-7-----------5------------------ |
    | ---------------------------------------------------------------------------------- |
                  ......       ......            ...
    
    | ---------------------------------------------------------------------------------- |
    | ---------------------------------------------------------------------------------- |
    | ----------------------7^--7^--5--4----------------------------------------------- |
    | ----------5--5-------------------------------------------------------------------- |
    | --0-0----3--3------------------------------------------------------------------ -- |
    | ---------------------------------------------------------------------------------- |
       ....
    
    3 times
    | ---------------------------------------------------------------------------------- |
    | ---------------------------------------------------------------------------------- |
    | ---------------------------------------------------------------------------------- |
    | --5-h-7------------7-p-5---------5--7-----------------5--------------------------- |
    | ------------0--0--------------0------------0--5-h-7---------5--------------------- |
    | ---------------------------------------------------------------------------------- |
                 .....             ...          ...
    
    | ---------------------------------------------------------------------------------- |
    | ---------------------------------------------------------------------------------- |
    | ----------------------7^--7^--5~---/-14~------------------------------------------ |
    | ----------5--5-------------------------------------------------------------------- |
    | --0-0-----3--3-------------------------------------------------------------------- |
    | ---------------------------------------------------------------------------------- |
       ....
    
    | -------------------------------------------------------------------------------------------------------------------------------|
    | -------------------------------------------------------------------------------------------------------------------------------|
    | ------------------------------------------------------------5^----------------------------------------------------7^--5--------|
    | --5-h-7----------7-p-5----------5--7---------5-h-7---------------7--------5-h-7------7--7------5-h-7---------------------------|
    | -----------0--0-------------0-----------0------------0---------------0------------0---------0--------------0-------------------|
    | -------------------------------------------------------------------------------------------------------------------------------|
                .....            ...         ...          ...             ...          ...           ...       
    ...
    
     -------------------------------------------------------------------------------------- |
     -------------------------------------------------------------------------------------- |
     -------------------------------------------------------------------------------------- |
     --5-h-7---------7--7--------7--5---------------------------------------------5~------- |
     ------------0----------0-------------7--6--5--3-------------3--5--6--7---------------- |
     ------------------------------------------------------3--3---------------------------- |
                ...        ...
    
    | ----------------------------------------------------------------------------------- |
    | ----------------------------------------------------------------------------------- |
    | --------------------------------------------------------------------------7^--5~--- |
    | --7--5----------------------------------------------------------------------------- |
    | ----------7--6--5--3--------------------------------------------------------------- |
    | --------------------------3--0--/-7^---0--3--0--/-7^--0--3--0--/-7^---0------------ |
    
    
    ~peace~
     

    Тональность:

    Нет текста!



    Назад
    Рекомендуем посмотреть другие песни исполнителя «Down»:

    • Комментарии Facebook ()
    • Комментарии ВКонтакте



    Добавить в Избранное Браузера
    Сохранить здесь Очистить


    x

    0


    +
    -

    +
    -

    -

    Авторизация





    Зарегистрироваться

    M

    Дата и время

    • 11:08:19
       

    Социальные ссылки


    Наши приложения

    • Muzbank App Play Market
    • Muzbank Amazon App