MUZBANK



A Most Complete Bank Of Music Information

МУЗЫКАЛЬНО-ИНФОРМАЦИОННЫЙ БАНК

Поиск по сайту







    DDown • Underneath Everything (аккорды и текст - chords & lyrics)


    250

    Print

    Видео «Underneath Everything (Down)»

    Видео клипы к песне подбираются автоматически сайтом youtube. Возможны некоторые несоответствия клипов песне.

    ↑ Спрятать рекламу ↑



    Download


     
    
    
    Down-Underneath Evrything
    By:Bill.
     OF course Down tunes waay down to Db tuning ( drop D then 1/2 step)
          Intro                     
    Eb|--------|
    Bd|--------|
    Gb|--------|
    Db|--------|
    Ab|----5--|
    Db|-0------|
                            
                                #1
    eb|-------------------------------------------------------|
    Bb|-------------------------------------------------------|
    Gb|-------------------------------------------------------|
    Db|-------------------------------------------------------|
    Ab|------------5--------3------------5--------------------|
    Db|000000--0h3---000000---000000--0h3---3-3-3h5-5p3p0----|
       [.pm. ]       [.pm. ]  [.pm. ]
                 
                              #2
    eb|-------------------------------------------------------|
    Bb|-------------------------------------------------------|
    Gb|-------------------------------------------------------|
    Db|-------------------------------------------------------|
    Ab|----------5--------3-----------32---2--23---3--3p2p0--|
    Db|000000--3----0000--3--3p0--0000-32---2--23---3--3p2p0--|
       [.pm.]       [pm]          [pm]     pm      pm
    
                              #3
    eb|------------------|----------------------------------|
    Bb|------(3 times)---|----------------------------------|
    Gb|------------------|----------------------------------|
    Db|--8--8--8--8--87-|----------------------------------|
    Ab|--6--6--6--6--65-|----------------------------------|
    Db|0---pm----pm------|--3--3--3h5--5p3p0----------------|
            
                               #4
    eb|--------------------|----------------------------------|
    Bb|------(3 times)-----|----------------------------------|
    Gb|--------------------|----------------------------------|
    Db|---8--8--8--8--8--8-|----------------------------------|
    Ab|---6--6--6--6--6--6-|----------------------------------|
    Db|0----pm----pm----pm-|-3--3---3h5---5p3p0---------------|
            
                              Outro
    eb|--------------------|---------------------------------|
    Bb|------(3 times)-----|---------------------------------|
    Gb|--------------------|---------------------------------|
    Db|------8--8--8--8--8-|---------------------------------|
    Ab|-000--6--6--6--6--6-|---------------------------------|
    Db|-000-----pm----pm---|-3--3--3h5--5p3p0----------------|
       [pm]    
    
    OK, song order is as follows:
    Intro 
    #1; 6 times
    #2; twice
    #3; twice
    #1; 4 times
    #2; 4 times
    #3; 4 times
    #1; 6 times (into solo on 2nd)
    #3; 3 times
    #4; twice
    outro; repeat through end
     

    Тональность:

    Нет текста!



    Назад
    Рекомендуем посмотреть другие песни исполнителя «Down»:

    • Комментарии Facebook ()
    • Комментарии ВКонтакте



    Добавить в Избранное Браузера
    Сохранить здесь Очистить


    x

    0


    +
    -

    +
    -

    -

    Авторизация





    Зарегистрироваться

    M

    Дата и время

    • 03:08:53
       

    Социальные ссылки


    Наши приложения

    • Muzbank App Play Market
    • Muzbank Amazon App