MUZBANK



A Most Complete Bank Of Music Information

МУЗЫКАЛЬНО-ИНФОРМАЦИОННЫЙ БАНК

Поиск по сайту







    DDream Theater • Innocence Faded (аккорды и текст - chords & lyrics)


    223

    Print

    Видео «Innocence Faded (Dream Theater)»

    Видео клипы к песне подбираются автоматически сайтом youtube. Возможны некоторые несоответствия клипов песне.

    ↑ Спрятать рекламу ↑



    Download


     
    
    
    Song Innocence faded
    By dream theater
    tabbed by silkmoth 
    TIME CHANGES ALL OVER THE PLACE
    
    intro
    
      Gtr I
    |-----|---------|-17--------24--(24)-------17---16--|
    |-----|---------|---------------------17------------|
    |-----|---------|-14-----------------(14)-(14)-(14)-|
    |-----|---------|-14-----------------(14)-(14)-(14)-|
    |-----|---------|----------(24)-(24)----------------|
    |-----|---------|-17-------(24)-(24)-(17)-(17)-(17)-|
    |
    | Gtr II
    |-----|---------|--5--------12--(12)----------------|
    |-----|---------|-----------------------------------|
    |-----|---------|--------------------------14---13--|
    |-----|---------|---------------------14------------|
    |-----|---------|-----------------------------------|
    |-----|---------|-----------------------------------|
    |
    | Gtrs III, IV
    |-----|---------|--9-12-----12---12---12--------12--|
    |-----|---------|-------12-----------------12-------|
    |-----|---------|-----------------------------------|
    |-----|---------|-----------------------------------|
    |-----|---------|-----------------------------------|
    |-----|---------|-----------------------------------|
    
    
    |-(16)--------24--(24)------------0--24--|
    |--17-------------------17---21----------|
    |--16--------(21)-(21)-(21)-(21)----(21)-|
    |--14--------(21)-(21)-(21)-(21)----(21)-|
    |----------------------(19)-(19)---------|
    |------------(24)-(24)--------------(24)-|
    |
    |-------------12--(12)-----------14--14--|
    |------------------------------------17--|
    |-(13)-----------------------13----------|
    |-----------------------14---------------|
    |----------------------------------------|
    |----------------------------------------|
    |
    |-------------12---------------------12--|
    |------12-12------------12-------12------|
    |----------------------------------------|
    |--14--------------14--------------------|
    |----------------------------------------|
    |----------------------------------------|
    
    
    |-(24)-(7)-(7)-----19---24---0--0-0-|---0---0--0--24---19--17-24--17---16------------------16---17---19--|
    |------(7)-(7)-----22---(0)---------|---------------------------------------17--------17-----------------|
    |------(4)-(4)----------------------|--------------------------------------------18----------------------|
    |----------------------(21)---------|-----------------(19)-----------------------------------------------|
    |----------------------(21)---------|------------(24)-(19)-----------------------------------------------|
    |-----------------------------------|------------(24)-(17)-16----(16)-(16)-(16)-(16)-(16)-(16)-(16)-(16)-|
    |
    |-(14)-------------12---14--16-17---|-(17)-17-16--------------12-----------------------------------------|
    |-(17)---------12-------------------|-------------17--------------10----9-------------------9---10---12--|
    |--------------14-------------------|------------------16--14----------------9---------9-----------------|
    |-----------------------------------|--------------------------------------------11----------------------|
    |-----------------------------------|--------------------------------------------------------------------|
    |-----------------------------------|--------------------------------------------------------------------|
    |
    |------12------12-------14-----12---|------12---------------------12------------------12-----------------|
    |--12------12------12-------12------|--10---------12------------------------12------------------12-------|
    |-----------------------------------|----------------------13--------------------------------------------|
    |-----------------------------------|--------------------------------------------------------------------|
    |-----------------------------------|--------------------------------------------------------------------|
    |-----------------------------------|--------------------------------------------------------------------|
    
    
    |-17--------24--(24)-------24--(5)----24-|
    |---------------------17-------(5)-------|
    |-14-----------------(14)------(2)-------|
    |-14-----------------(14)----------------|
    |----------(24)-(24)------(24)-----------|
    |-17-------(24)-(24)-(17)-(24)-----------|
    |
    |-----------12--(12)-------14------12----|
    |-10-----------------------17------------|
    |----------------------------------------|
    |---------------------14-----------------|
    |----------------------------------------|
    |----------------------------------------|
    |
    |----12-----12---12---12-----------12----|
    |-14----12-----------------12------------|
    |----------------------------------------|
    |----------------------------------------|
    |----------------------------------------|
    |----------------------------------------|
    
    
    |-(24)--------19--------24---0--0--0-|-----0--0--24--(24)----------|
    |-------------22---------------------|-----------(0)--(0)----------|
    |--21--------(21)-(21)-(21)----------|-----------------------------|
    |--21--------(21)-(21)-(21)----------|-21-------(21)-(21)----------|
    |------------(19)-(19)---------------|-21-------(21)-(21)----------|
    |--24------------------(24)----------|-19--------------------------|
    |
    |-(12)------------------12--14-16-17-|-19-21-19--19--(19)----------|
    |-------------12---------------------|-----------------------------|
    |-------------14---------------------|-----------------------------|
    |------------------------------------|-----------------------------|
    |------------------------------------|-----------------------------|
    |------------------------------------|-----------------------------|
    |
    |-------------12------------------12-|----12-----12-------14----12-|
    |------12-12----------------12-12----|-12----12-------12-----12----|
    |------------------------------------|-----------------------------|
    |--14-------------------14-----------|-----------------------------|
    |------------------------------------|-----------------------------|
    |------------------------------------|-----------------------------||------------------2-(2)--------------5-(5)----|
    |-------------------------------------5-(5)----|
    |-----------2-(2)------------1--------2-(2)----|
    |-23-------------------------------------------|
    |-23-------------------------------------------|
    |-21-------------------------------------------|
    |
    |-21-------------------------------------------|
    |-24-------------------------------------------|
    |----------------------------------------------|
    |----------------------------------------------|
    |----------------------------------------------|
    |----------------------------------------------|
    |
    |-12-------------------------------------------|
    |----12-14----14------------17----------12--12-|
    |----------13--------16--16----16-16-----------|
    |-----------------16-----------------14--------|
    |----------------------------------------------|
    |----------------------------------------------|
    
    
    |--2---------(2)----|-----------|-------------|---------|
    |--2---------(2)--3-|-17--------|-(17)--------|-(17)----|
    |-----------------2-|-19--------|-(19)--------|-(19)----|
    |--4---------(4)----|-19--------|-(19)--------|-(19)----|
    |-------------------|-----------|-------------|---------|
    |-------------------|-----------|-------------|---------|
    |
    | Gtrs III, IV
    |-12--------(12)----|-12--------|-(12)--------|-(12)----|
    |-12--------(12)----|-15--------|-(15)--------|-(15)----|
    |-16--------(16)----|-14--------|-(14)--------|-(14)----|
    |-14--------(14)-12-|-----------|-------------|---------|
    |----------------12-|-----------|-------------|---------|
    |-------------------|-----------|-------------|---------|
    
    
    |-------------|---------------------|-------------------|---------------------|
    |-(17)--------|---------------------|-------------------|---------------------|
    |-(19)--------|---------------------|-------------------|---------------------|
    |-(19)--------|---------------------|-------------------|---------------------|
    |-------------|---------------------|-------------------|---------------------|
    |-------------|---------------------|-------------------|---------------------|
    |
    |-(12)--------|----17-(17)--(17)----|-------15--(15)----|---------------------|
    |-(15)--------|----17-(17)--(17)----|-------15--(15)----|----18-(18)--(18)----|
    |-(14)--------|----19-(19)--(19)----|-------17--(17)----|----17-(17)--(17)----|
    |-------------|----19-(19)--(19)----|----17-------------|----17-(17)--(17)----|
    |-------------|-12------------------|-------------------|-15-20-(20)--(20)----|
    |-------------|---------------------|-17----------------|---------------------|
    
    
      Gtrs III, IV
    |-------------------|----17-(17)--(17)----|
    |-------20--(20)----|----17-(17)--(17)----|
    |-------19--(19)----|----19-(19)--(19)----|
    |-------19--(19)----|----19-(19)--(19)----|
    |----17-------------|---------------------|
    |-15----------------|-17------------------|
    
    
    |-------15--(15)----|---------------------|
    |-------15--(15)----|----18-(18)--(18)----|
    |-------17--(17)----|----17-(17)--(17)----|
    |----17-------------|----17-(17)--(17)----|
    |-------------------|-15-20-(20)--(20)----|
    |-17----------------|---------------------|
    
    
    |-------------------|----17-(17)--(17)----|
    |-------20--(20)----|----17-(17)--(17)----|
    |-------19--(19)----|----19-(19)--(19)----|
    |-------19--(19)----|----19-(19)--(19)----|
    |----17-------------|---------------------|
    |-15----------------|-17------------------|
    
    
    |-------15--(15)----|---------------------|
    |-------15--(15)----|----18-(18)--(18)----|
    |-------17--(17)----|----17-(17)--(17)----|
    |----17-------------|----17-(17)--(17)----|
    |-------------------|-15-20-(20)--(20)----|
    |-17----------------|---------------------|
    
    
    |-------------------|----17-(17)--(17)----|
    |-------20--(20)----|----17-(17)--(17)----|
    |-------19--(19)----|----19-(19)--(19)----|
    |-------19--(19)----|----19-(19)--(19)----|
    |----17-------------|---------------------|
    |-15----------------|-17------------------|
    
    
    |-------15--(15)----|---------------------|
    |-------15--(15)----|----18-(18)--(18)----|
    |-------17--(17)----|----17-(17)--(17)----|
    |----17-------------|----17-(17)--(17)----|
    |-------------------|-15-20-(20)--(20)----|
    |-17----------------|---------------------|
    
    
                          Gtr IV
    |-------------------|----------------13----12-|
    |-------20--(20)----|----------17-------11----|
    |-------19--(19)----|-19----19----15----------|
    |-------19--(19)----|----20-------------------|
    |----17-------------|-------------------------|
    |-15----------------|-------------------------|
    
    
    |----------12----13----12-|-10----10-12----13----12--|
    |-11----11----------------|----10-------10-----------|
    |----12-------12----12----|-------------------14-----|
    |-------------------------|--------------------------|
    |-------------------------|--------------------------|
    |-------------------------|--------------------------|
    
    
    |-10---10-12----13----12-|-10----10-12----13----12-|
    |----8-------------------|----11-------11----11----|
    |------------12----12----|-------------------------|
    |------------------------|-------------------------|
    |------------------------|-------------------------|
    |------------------------|-------------------------|
    
    
    |----------12----13----12-|-10----10-12----13----12--|
    |-11----11----------------|----10-------10-----------|
    |----12-------12----12----|-------------------14-----|
    |-------------------------|--------------------------|
    |-------------------------|--------------------------|
    |-------------------------|--------------------------|
    
    
      Gtr I
    |------------------------|
    |------------------------|
    |------------------------|
    |------------------------|
    |------------------------|
    |------------------------|
    |
    | Gtr IV
    |-10---10-12----13----12-|
    |----8-------------------|
    |------------12----12----|
    |------------------------|
    |------------------------|
    |------------------------||------------------------------------------------------|
    |-18--(18)---------------------------------------------|
    |-17--(17)-19-19-(19)--------------------------(19)-19-|
    |-15--(15)-19-19-(19)--------------------------(19)-19-|
    |----------17-17-(17)--------------------------(17)-17-|
    |------------------------------------------------------|
    |
    |-17---17--17------------------------------------------|
    |-18---18--18-19--19--19-19-19-19-19-19-19-19---19-----|
    |-17---17--17-19--19--19-19-19-19-19-19-19-19---19-----|
    |-15---15--15-19--19--19-19-19-19-19-19-19-19---19-----|
    |-------------17--17--17-17-17-17-17-17-17-17---17-----|
    |------------------------------------------------------|
    
    
    |-3-------8--(8)--------------------------(8)-8-|
    |-1-------8--(8)--------------------------(8)-8-|
    |---------5--(5)--------------------------(5)-5-|
    |-3---------------------------------------------|
    |-----------------------------------------------|
    |-----------------------------------------------|
    |
    |-3--3-3----------------------------------------|
    |-1--1-1-17-(17)-17-17-17-17-17-17-17-17--17----|
    |--------17-(17)-17-17-17-17-17-17-17-17--17----|
    |-3--3-3-17-(17)-17-17-17-17-17-17-17-17--17----|
    |--------15-(15)-15-15-15-15-15-15-15-15--15----|
    |-----------------------------------------------|
    
    
    |-13--(13)-10-10-(10)--------------------------(10)-10--|
    |-13--(13)-10-10-(10)--------------------------(10)-10--|
    |-10--(10)----------------------------------------------|
    |----------12-12-(12)--------------------------(12)-12--|
    |-------------------------------------------------------|
    |-------------------------------------------------------|
    |
    |-17---17--17-------------------------------------------|
    |-18---18--18-19--19--19-19-19-19-19-19-19-19---19------|
    |-17---17--17-19--19--19-19-19-19-19-19-19-19---19------|
    |-15---15--15-19--19--19-19-19-19-19-19-19-19---19------|
    |-------------17--17--17-17-17-17-17-17-17-17---17------|
    |-------------------------------------------------------||-----------------------------------|
    |---------13-----(13)----11----(11)-|
    |-12------12-----(12)----10----(10)-|
    |-10------10-----(10)-----8-----(8)-|
    |-----------------------------------|
    |-13--------------------------------|
    |
    | Gtr III
    |-----------------------------------|
    |-----------------------------------|
    |-----------------------------------|
    |-----------------------------------|
    |-----------------------------------|
    |-----------------------------------|
    |
    | Gtr IV
    |--3--3-3---------------------------|
    |--1--1-1-17--17--17--17-15----(15)-|
    |---------17--17--17--17-15----(15)-|
    |--3--3-3-17--17--17--17-15----(15)-|
    |---------15--15--15--15------------|
    |------------------------18----(18)-||-------------------------|-12----------------------|
    |-10----------------------|-12----------------------|
    |--9----------------------|--9----------------------|
    |--7----------------------|-------------------------|
    |-------------------------|-------------------------|
    |-------------------------|-------------------------|
    |
    |-------------------------|-------------------------|
    |----17----17-17-17----17-|-------------------------|
    |-18----16----------16----|----------21----------21-|
    |-------------------------|----21-21-------21-21----|
    |-------------------------|-19----------19----------|
    |-------------------------|-------------------------|
    |
    |----12----12-12-12----12-|----------12----------12-|
    |-14----12----------12----|----12-12-------12-12----|
    |-------------------------|-------------------------|
    |-------------------------|-14----------14----------|
    |-------------------------|-------------------------|
    |-------------------------|-------------------------|
    
    
    |-------------------------|--------------------------|
    |-12----------------------|-10-----------------------|
    |-11----------------------|--9-----------------------|
    |--9----------------------|--7--------6-(6)----------|
    |-------------------------|--------------------------|
    |-------------------------|--------------------------|
    |
    |-------------------------|--------------------------|
    |----------------19-------|----17-------17-----17----|
    |----21----21----------21-|-------16--------16----16-|
    |-21----21----21----21----|-19-------18--------------|
    |-------------------------|--------------------------|
    |-------------------------|--------------------------|
    |
    |----12----12----14----12-|----12-------12-----12----|
    |-12----12----12----12----|-10----12--------12----12-|
    |-------------------------|----------13--------------|
    |-------------------------|--------------------------|
    |-------------------------|--------------------------|
    |-------------------------|--------------------------|
    
    
    |-------------------------|-12-----------------------|
    |-10----------------------|-12-----------------------|
    |--9----------------------|--9-----------------------|
    |--7----------------------|--------------------------|
    |-------------------------|--------------------------|
    |-------------------------|--------------------------|
    |
    |----12----12-12-12----12-|----------12----------12--|
    |-14----12----------12----|----12-12-------12-12-----|
    |-------------------------|--------------------------|
    |-------------------------|-14----------14-----------|
    |-------------------------|--------------------------|
    |-------------------------|--------------------------|
    |
    |----12----12-12-12----12-|----------12----------12--|
    |-14----12----------12----|----12-12-------12-12-----|
    |-------------------------|--------------------------|
    |-------------------------|-14----------14-----------|
    |-------------------------|--------------------------|
    |-------------------------|--------------------------|
    
    
    |-------------------------|-----------------|-------------------|-------|
    |-12----------------------|------10-(10)----|-------------------|-------|
    |-11----------------------|--9----9--(9)----|-------------------|-------|
    |--9----------------------|--9----7--(7)----|-------------------|-------|
    |-------------------------|-----------------|-------------------|-------|
    |-------------------------|-12--------------|-------------------|-------|
    |
    | Gtrs III, IV
    |----12----12----14----12-|-12---12-(12)----|------17-(17)------|-15----|
    |-12----12----12----12----|-12---12-(12)----|-------------------|-15----|
    |-------------------------|-13---14-(14)----|-------------------|-17----|
    |-------------------------|-14---14-(14)----|-12----------------|-17----|
    |-------------------------|-14---12-(12)----|----------------15-|-------|
    |-------------------------|-12--------------|----------------15-|-------|
    
    
      Gtrs III, IV
    |-15---13-(13)--------|------13-(13)----15--|------17-(17)------|-15----|
    |-18--------------13--|-15---13-(13)----15--|-------------------|-15----|
    |-17------------------|-12------------------|-------------------|-17----|
    |-15------------------|-12-----------12-----|-------------------|-17----|
    |-15-----------15-----|---------------------|-17-------------15-|-------|
    |---------------------|-15------------------|----------------15-|-------|
    
    
    |-15---13-(13)--------|------13-(13)----15--|
    |-18--------------13--|-15---13-(13)----15--|
    |-17------------------|-12------------------|
    |-15------------------|-12-----------12-----|
    |-15-----------15-----|---------------------|
    |---------------------|-15------------------|
    
    
      Gtr I
    |-10---15-------|--------------------|
    |-10---15-------|--------------------|
    |--7------------|-17----(17)---------|
    |--7------------|-17----(17)---------|
    |---------17----|-15----(15)---15-15-|
    |---------17----|-15----(15)---------|
    
    
    |------13-(13)------|------13-(13)-------15--|
    |-18------------13--|-15---13-(13)-------15--|
    |-17----------------|-12---------------------|
    |-15----------------|-12-----------12-12-----|
    |-15----------------|------------------------|
    |-------------------|-15---------------------|
    
    
    |------15-------|---------------------|
    |------15-------|---------------------|
    |-19------------|-17----(17)----------|
    |-19------------|-17----(17)----------|
    |-17------17----|-15----(15)---15-15--|
    |-17------17----|-15----(15)----------|
    
    
    |------13-(13)------|------13-(13)-------15--|
    |-18------------13--|-15---13-(13)-------15--|
    |-17----------------|-12---------------------|
    |-15----------------|-12-----------12-12-----|
    |-15----------------|------------------------|
    |-------------------|-15---------------------|
    
    
    |-------------------------------13-13-------12-12--|
    |-15-15-------15-15-17-17-------------11-11--------|
    |-------15-15-------------15-15--------------------|
    |--------------------------------------------------|
    |--------------------------------------------------|
    |--------------------------------------------------|
    
    
    |-10-10-----10-10-12-12-------13-13-------12-12-|
    |-------8-8-------------------------------------|
    |-----------------------12-12-------12-12-------|
    |-----------------------------------------------|
    |-----------------------------------------------|
    |-----------------------------------------------|
    
    
    |-10-10-------10-10-12-12-------13-13-------12-12--|
    |-------10-10-------------10-10--------------------|
    |-------------------------------------14-14--------|
    |--------------------------------------------------|
    |--------------------------------------------------|
    |--------------------------------------------------|
    
    
    |-10-10-----10-10-12-12-------13-13-------12-12-|
    |-------8-8-------------------------------------|
    |-----------------------12-12-------12-12-------|
    |-----------------------------------------------|
    |-----------------------------------------------|
    |-----------------------------------------------|
    
    
    |-10-10-------10-10-12-12-------13-13-------12-12--|
    |-------11-11-------------11-11-------11-11--------|
    |--------------------------------------------------|
    |--------------------------------------------------|
    |--------------------------------------------------|
    |--------------------------------------------------|
    
    
    |-10-10-----10-10-12-12-------13-13-------12-12-|
    |-------8-8-------------------------------------|
    |-----------------------12-12-------12-12-------|
    |-----------------------------------------------|
    |-----------------------------------------------|
    |-----------------------------------------------|
    
    
    |-10-10-------10-10-12-12-------13-13-------12-12--|
    |-------10-10-------------10-10--------------------|
    |-------------------------------------14-14--------|
    |--------------------------------------------------|
    |--------------------------------------------------|
    |--------------------------------------------------|
    
    
    |-10-10-----10-10-12-12-------13-13-------12-12-|
    |-------8-8-------------------------------------|
    |-----------------------12-12-------12-12-------|
    |-----------------------------------------------|
    |-----------------------------------------------|
    |-----------------------------------------------|
    |
    | Gtr IV
    |-----------------------------------------------|
    |-----------------------------------------------|
    |-----------------------------------------------|
    |-----------------------------------------------|
    |-----------------------------------------------|
    |-----------------------------------------------||-13--(13)-10-10-(10)--------------------------(10)-10-|
    |-13--(13)-10-10-(10)--------------------------(10)-10-|
    |-10--(10)---------------------------------------------|
    |----------12-12-(12)--------------------------(12)-12-|
    |------------------------------------------------------|
    |------------------------------------------------------|
    |
    |-17---17--17------------------------------------------|
    |-18---18--18-19--19--19-19-19-19-19-19-19-19---19-----|
    |-17---17--17-19--19--19-19-19-19-19-19-19-19---19-----|
    |-15---15--15-19--19--19-19-19-19-19-19-19-19---19-----|
    |-------------17--17--17-17-17-17-17-17-17-17---17-----|
    |------------------------------------------------------||-----------------------------------|
    |---------13-----(13)----11----(11)-|
    |-12------12-----(12)----10----(10)-|
    |-10------10-----(10)-----8-----(8)-|
    |-----------------------------------|
    |-13--------------------------------|
    |
    |--3--3-3---------------------------|
    |--1--1-1-17--17--17--17-15----(15)-|
    |---------17--17--17--17-15----(15)-|
    |--3--3-3-17--17--17--17-15----(15)-|
    |---------15--15--15--15------------|
    |------------------------18----(18)-||-------------------------|-12----------------------|
    |-10----------------------|-12----------------------|
    |--9----------------------|--9----------------------|
    |--7----------------------|-------------------------|
    |-------------------------|-------------------------|
    |-------------------------|-------------------------|
    |
    | Gtrs III, IV
    |----12----12-12-12----12-|----------12----------12-|
    |-14----12----------12----|----12-12-------12-12----|
    |-------------------------|-------------------------|
    |-------------------------|-14----------14----------|
    |-------------------------|-------------------------|
    |-------------------------|-------------------------|
    
    
    |-------------------------|--------------------------|
    |-12----------------------|-10-----------------------|
    |-11----------------------|--9-----------------------|
    |--9----------------------|--7--------6-(6)----------|
    |-------------------------|--------------------------|
    |-------------------------|--------------------------|
    |
    |----12----12----14----12-|----12-------12-----12----|
    |-12----12----12----12----|-10----12--------12----12-|
    |-------------------------|----------13--------------|
    |-------------------------|--------------------------|
    |-------------------------|--------------------------|
    |-------------------------|--------------------------|
    
    
    |-------------------------|-12-----------------------|
    |-10----------------------|-12-----------------------|
    |--9----------------------|--9-----------------------|
    |--7----------------------|--------------------------|
    |-------------------------|--------------------------|
    |-------------------------|--------------------------|
    |
    |----12----12-12-12----12-|----------12----------12--|
    |-14----12----------12----|----12-12-------12-12-----|
    |-------------------------|--------------------------|
    |-------------------------|-14----------14-----------|
    |-------------------------|--------------------------|
    |-------------------------|--------------------------|
    
    
    |-------------------------|-----------------|
    |-12----------------------|------10-(10)----|
    |-11----------------------|--9----9--(9)----|
    |--9----------------------|--9----7--(7)----|
    |-------------------------|-----------------|
    |-------------------------|-12--------------|
    |
    |----12----12----14----12-|-12---12-(12)----|
    |-12----12----12----12----|-12---12-(12)----|
    |-------------------------|-13---14-(14)----|
    |-------------------------|-14---14-(14)----|
    |-------------------------|-14---12-(12)----|
    |-------------------------|-12--------------|
    
    
    |-----------------------|--------------------------|
    |-----------------------|--------------------------|
    |-----------------------|--------------------------|
    |-----------------------|--------------------------|
    |-----------------------|--------------------------|
    |-----------------------|--------------------------|
    |
    |-16----(16)-14-(14)-15-|-(15)---14-(14)-12-(12)---|
    |-17----(17)-16-(16)-15-|-(15)---15-(15)-14-(14)---|
    |-16----(16)-16-(16)-16-|-(16)---14-(14)-14-(14)---|
    |-----------------------|--------------------------|
    |-----------------------|--------------------------|
    |-----------------------|--------------------------|
    
    
      Gtrs III, IV
    |-13---12-(12)-10-(10)-10-|-(10)-10----------10-------|
    |-13---13-(13)-12-(12)-10-|-(10)----10----10----10----|
    |-14---12-(12)-12-(12)-12-|-(12)-------11----------11-|
    |-------------------------|---------------------------|
    |-------------------------|---------------------------|
    |-------------------------|---------------------------|
    
    
    |-----------------------|--------------------------|
    |-21----(21)-19-(19)-20-|-(20)---19-(19)-17-(17)---|
    |-21----(21)-20-(20)-19-|-(19)---19-(19)-18-(18)---|
    |-21----(21)-21-(21)-21-|-(21)---19-(19)-19-(19)---|
    |-----------------------|--------------------------|
    |-----------------------|--------------------------|
    
    
    |-------------------------|---------------------------|
    |-18---17-(17)-15-(15)-15-|-(15)-15----------15-------|
    |-17---17-(17)-16-(16)-14-|-(14)----14----14----14----|
    |-19---17-(17)-17-(17)-17-|-(17)-------16----------16-|
    |-------------------------|---------------------------|
    |-------------------------|---------------------------|
    
    
    |-------------------------|--------------------------|
    |----------17-------------|--------------------------|
    |-------------------------|-------21-------21-21-----|
    |-------19----19----------|----21-------21-21----21--|
    |----19-------------19----|-19-------19--------------|
    |-17-------------21----19-|--------------------------|
    
    
    |-------------------------|----------------22-24----|
    |-------------------------|-------22----22-------24-|
    |----------24-------------|----21----21-------------|
    |-------24----24----24----|-24----------------------|
    |----22----------22----24-|-------------------------|
    |-22----------------------|-------------------------|
    
    
    |-------------------------|-------19-------------19--|
    |----------22-20----------|----19-------------19-----|
    |-------24----------19----|-21-------------21--------|
    |----24----------19----21-|-------------21-----------|
    |-22----------------------|----------19--------------|
    |-------------------------|--------------------------|
    
    
      Gtr I
    |-----------------------|----------------------------|
    |-----------------------|----------------------------|
    |-----------------------|----------------------------|
    |-----------------------|----------------------------|
    |-----------------------|----------------------------|
    |-----------------------|----------------------------|
    |
    | Gtr II
    |-----------------------|----------------------------|
    |-----------------------|------19-17-16--14--12-10-9-|
    |-----------------------|----------------------------|
    |-----------------------|----------------------------|
    |-----------------------|----------------------------|
    |-----------------------|----------------------------|
    |
    | Gtrs III, IV
    |-------22-22-----------|----------------------------|
    |----15-22-------22--24-|-(24)----------(24)---------|
    |--------------------23-|-(23)----------(23)---------|
    |-------------24-24--21-|-(21)----------(21)---------|
    |-17--------------------|----------------------------|
    |----------------22-----|----------------------------|
    
    
    |-------------------------|-12-----------------------|
    |-10----------------------|-12-----------------------|
    |--9----------------------|--9-----------------------|
    |--7----------------------|--------------------------|
    |-------------------------|--------------------------|
    |-------------------------|--------------------------|
    |
    |-------------------------|--------------------------|
    |-10----------------------|--------------------------|
    |-------------------------|--------------------------|
    |-------------------------|--------------------------|
    |-------------------------|--------------------------|
    |-------------------------|--------------------------|
    |
    |-------------------------|--------------------------|
    |-------------------------|--------------------------|
    |----21----21-21-21----21-|----------21----------21--|
    |-23----21----------21----|----21-21-------21-21-----|
    |-------------------------|-19----------19-----------|
    |-------------------------|--------------------------|
    
    
    |-------------------------|--------------------------|
    |-12----------------------|-10-----------------------|
    |-11----------------------|--9-----------------------|
    |--9----------------------|--7--------6-(6)----------|
    |-------------------------|--------------------------|
    |-------------------------|--------------------------|
    |
    | Gtrs III, IV
    |-------------------------|--------------------------|
    |----------------19-------|----17-------17-----17----|
    |----21----21----------21-|-------16--------16----16-|
    |-21----21----21----21----|-19-------18--------------|
    |-------------------------|--------------------------|
    |-------------------------|--------------------------|
    
    
    |-------------------------|-12-----------------------|
    |-10----------------------|-12-----------------------|
    |--9----------------------|--9-----------------------|
    |--7----------------------|--------------------------|
    |-------------------------|--------------------------|
    |-------------------------|--------------------------|
    |
    |----12----12-12-12----12-|----------12----------12--|
    |-14----12----------12----|----12-12-------12-12-----|
    |-------------------------|--------------------------|
    |-------------------------|-14----------14-----------|
    |-------------------------|--------------------------|
    |-------------------------|--------------------------|
    
    
    |-------------------------|--9--------------|
    |-12----------------------|--9---10-(10)----|
    |-11----------------------|-------9--(9)----|
    |--9----------------------|-11----7--(7)----|
    |-------------------------|-----------------|
    |-------------------------|-----------------|
    |
    | Gtr II
    |-------------------------|-----------------|
    |-------------------------|-----------------|
    |-------------------------|-----------------|
    |-------------------------|-----------------|
    |-------------------------|-----------------|
    |-------------------------|-----------------|
    |
    | Gtrs III, IV
    |----12----12----14----12-|-12---12-(12)----|
    |-12----12----12----12----|-16---12-(12)----|
    |-------------------------|-16---14-(14)----|
    |-------------------------|------14-(14)----|
    |-------------------------|------12-(12)----|
    |-------------------------|-----------------|
    
    
    |-17--------24--(24)-------17---16--|-(16)--------24--(24)------------0--24--|
    |---------------------17------------|--17-------------------17---21----------|
    |-14-----------------(14)-(14)-(14)-|--16--------(21)-(21)-(21)-(21)----(21)-|
    |-14-----------------(14)-(14)-(14)-|--14--------(21)-(21)-(21)-(21)----(21)-|
    |----------(24)-(24)----------------|----------------------(19)-(19)---------|
    |-17-------(24)-(24)-(17)-(17)-(17)-|------------(24)-(24)--------------(24)-|
    |
    |-----------12--(12)----------------|-------------12--(12)-----------14--14--|
    |-10--------------------------------|------------------------------------17--|
    |--------------------------14---13--|-(13)-----------------------13----------|
    |---------------------14------------|-----------------------14---------------|
    |-----------------------------------|----------------------------------------|
    |-----------------------------------|----------------------------------------|
    |
    |----12-----12---12---12--------12--|-------------12---------------------12--|
    |-14----12-----------------12-------|------12-12------------12-------12------|
    |-----------------------------------|----------------------------------------|
    |-----------------------------------|--14--------------14--------------------|
    |-----------------------------------|----------------------------------------|
    |-----------------------------------|----------------------------------------|
    
    
    |-(24)-(7)-(7)-----19---24---0--0-0-|---0---0--0--24---19--17-24--17---16------------------16---17---19--|
    |------(7)-(7)-----22---(0)---------|---------------------------------------17--------17-----------------|
    |------(4)-(4)----------------------|--------------------------------------------18----------------------|
    |----------------------(21)---------|-----------------(19)-----------------------------------------------|
    |----------------------(21)---------|------------(24)-(19)-----------------------------------------------|
    |-----------------------------------|------------(24)-(17)-16----(16)-(16)-(16)-(16)-(16)-(16)-(16)-(16)-|
    |
    |-(14)-------------12---14--16-17---|-(17)-17-16--------------12-----------------------------------------|
    |-(17)---------12-------------------|-------------17--------------10----9-------------------9---10---12--|
    |--------------14-------------------|------------------16--14----------------9---------9-----------------|
    |-----------------------------------|--------------------------------------------11----------------------|
    |-----------------------------------|--------------------------------------------------------------------|
    |-----------------------------------|--------------------------------------------------------------------|
    |
    |------12------12-------14-----12---|------12---------------------12------------------12-----------------|
    |--12------12------12-------12------|--10---------12------------------------12------------------12-------|
    |-----------------------------------|----------------------13--------------------------------------------|
    |-----------------------------------|--------------------------------------------------------------------|
    |-----------------------------------|--------------------------------------------------------------------|
    |-----------------------------------|--------------------------------------------------------------------|
    
    
    |-17--------24--(24)-------24--(5)----24-|
    |---------------------17-------(5)-------|
    |-14-----------------(14)------(2)-------|
    |-14-----------------(14)----------------|
    |----------(24)-(24)------(24)-----------|
    |-17-------(24)-(24)-(17)-(24)-----------|
    |
    |-----------12--(12)-------14------12----|
    |-10-----------------------17------------|
    |----------------------------------------|
    |---------------------14-----------------|
    |----------------------------------------|
    |----------------------------------------|
    |
    |----12-----12---12---12-----------12----|
    |-14----12-----------------12------------|
    |----------------------------------------|
    |----------------------------------------|
    |----------------------------------------|
    |----------------------------------------|
    
    
    |-(24)--------19--------24---0--0--0-|-----0--0--24--(24)----------|
    |-------------22---------------------|-----------(0)--(0)----------|
    |--21--------(21)-(21)-(21)----------|-----------------------------|
    |--21--------(21)-(21)-(21)----------|-21-------(21)-(21)----------|
    |------------(19)-(19)---------------|-21-------(21)-(21)----------|
    |--24------------------(24)----------|-19--------------------------|
    |
    |-(12)------------------12--14-16-17-|-19-21-19--19--(19)----------|
    |-------------12---------------------|-----------------------------|
    |-------------14---------------------|-----------------------------|
    |------------------------------------|-----------------------------|
    |------------------------------------|-----------------------------|
    |------------------------------------|-----------------------------|
    |
    |-------------12------------------12-|----12-----12-------14----12-|
    |------12-12----------------12-12----|-12----12-------12-----12----|
    |------------------------------------|-----------------------------|
    |--14-------------------14-----------|-----------------------------|
    |------------------------------------|-----------------------------|
    |------------------------------------|-----------------------------|
    
    
                             
    |-24---------24-(24)--(5)--|------------14----15-|
    |--0-(5)-(5)----------(5)--|-21---------16----15-|
    |--9-(4)-(4)----------(2)--|-21---------16----16-|
    |--2-(2)-(2)---------------|-21-2-2-2-2----------|
    |--------------------------|---------------------|
    |--------------------------|---------------12----|
    |
    |--------------------------|---------------------|
    |-17---------17-(17)-------|---------------------|
    |-20---------19-(19)-------|---------------------|
    |--------------------------|---------------------|
    |--------------------------|---------------------|
    |--------------------------|---------------------|
    |
    |-12---------12-(12)-------|---------------------|
    |-12---------12-(12)-------|---------------------|
    |-13---------14-(14)-------|---------------------|
    |-14---------14-(14)-------|---------------------|
    |-14---------12-(12)-------|---------------------|
    |-12-----------------------|---------------------|
    
    
    |----------14----12-(12)--|-13-------12----------10-|
    |----------15----14-(14)--|-13-------13----------12-|
    |----------14----14-(14)--|-14-------12----------12-|
    |-------------------------|-------------------------|
    |-------------------------|-------------------------|
    |-12-12-12----12----------|----12-12----12-12-12----||----11----10-|-(10)---10-(10)----------|----------------------|
    |----11----10-|-(10)---10-(10)----------|----------------15----|
    |----12----12-|-(12)---11-(11)----------|----17-------17-------|
    |-------------|----------------12-14-15-|-17----15-17-------17-|
    |-------------|-------------------------|-------------------15-|
    |-12----12----|-------------------------|----------------------||---------|------------------|--------16----------------|
    |---------|------------------|-----17----17-17-19-17-17-|
    |---------|----------------9-|-(9)-19-------21----21-19-|
    |-18--18--|----------4-5-6-9-|-(9)----------------------|
    |-15--16--|-17-18-19-------7-|-(7)----------------------|
    |---------|------------------|--------------------------||-24-0-24-------|----------------21-(21)-----------------|
    |---------------|-19-------------22-(22)-17-17-------21--|
    |-21---21-------|-19-------------21-(21)-------------21--|
    |---------19----|-19-------------19-(19)-------------21--|
    |------------19-|------------------------------19-19-----|
    |---------------|-17-17-17-17-17-------------------------|
    
    
    |-------------14----15-|----------14----12-(12)--|
    |-(21)--------16----15-|----------15----14-(14)--|
    |-(21)--------16----16-|----------14----14-(14)--|
    |-(21)--2-2-2----------|-------------------------|
    |----------------------|-------------------------|
    |----------------12----|-12-12-12----12----------|
    
    
                                 
    |-13-------12-------------------10-|----11----10-|
    |-13-------13-------------------12-|----11----10-|
    |-14-------12-------------------12-|----12----12-|
    |----------------------------------|-------------|
    |----------------------------------|-------------|
    |----12-12----12-12-12-12-12-12----|-12----12----|
    
    
     4/4
    |-(10)---10-(10)----------|------------------------|
    |-(10)---10-(10)----------|------------------------|
    |-(12)---11-(11)----------|----12------------------|
    |-------------------------|-14----10-8-7--9--------|
    |----------------12-14-15-|--------------12-10-8-7-|
    |-------------------------|------------------------||---3-1---|-----5-----------7-----7-9-------|
    |-6-3-1-3-|-(3)---3-3---3-5---5---------6---|
    |-5-----2-|-(2)-------2---------------7-----|
    |---------|---------------------7---------7-|
    |---------|---------------------------------|
    |---------|---------------------------------|
    
    
    |-----8-13-15-17-------12------10------------|
    |-6-8------------15-------10-8----8-10-------|
    |-------------------14-----------------12----|
    |--------------------------------------12-14-|
    |--------------------------------------------|
    |--------------------------------------------||-------------------------|-----------------------|
    |-------------------------|----15-(15)------------|
    |-------------------------|-14-14-(14)-12-(12)-10-|
    |-------------------------|-14-12-(12)-12-(12)-10-|
    |-12-12-10--------8-10-11-|-12-12-(12)---------12-|
    |----------12-12-12-14----|------------15-(15)----||------------14-------15-|-(15)-15-----14----12-12-------|
    |-21---21----16-------15-|-(15)-15-----15----14-14-------|
    |-21---21----16-------16-|-(16)-16-----14----14-14-------|
    |-21---21--2-------------|-------------------------------|
    |------------------------|-------------------------------|
    |------------------12----|----------12----12-------------|
    |
    | Gtr II
    |-16------14-12-14----15-|------20--19----17-22-21-22-21-|
    |-19---------------12----|--15--24-----19----------------|
    |------------------------|-------------------------------|
    |------------------------|-------------------------------|
    |------------------------|-------------------------------|
    |------------------------|-------------------------------|
    
    
                        
    |-13-13----12----12-12----10-|----11----10----|
    |-13-13----13----13-13----12-|----11----10----|
    |-14-14----12----12-12----12-|----12----12----|
    |----------------------------|----------------|
    |----------------------------|----------------|
    |-------12-------------12----|-12----12-------|
    |
    |-22-24--0-24-22-24-24--0--0-|-----0-----0-0--|
    |----------------------------|----------------|
    |----------------------------|----------------|
    |----------------------------|-24-------------|
    |----------------------------|----------------|
    |----------------------------|----------------|
    
    
       
    |-(10)------10-(10)-------------|-------------------------------------------|
    |-(10)------10-(10)-------------|-------------------------------15----------|
    |-(12)------11-(11)-------------|-------17----------------17----------------|
    |-------------------12----14-15-|-17----------15----17----------------17----|
    |-------------------------------|-------------------------------------15----|
    |-------------------------------|-------------------------------------------|
    |
    |---0--0-22-24---0--24-24-22----|-------------------------17-19-------------|
    |----------------------------22-|----------------18-20-18----22-20----------|
    |-------------------------------|-------------17-------------------21-------|
    |-------------------------------|----22----19----------------------24-22-21-|
    |-------------------------------|-24-24-20----------------------------------|
    |-------------------------------|-------------------------------------------||---------|----------------------|
    |---------|----------------------|
    |---------|--------------------9-|
    |-18--18--|-----------4--5--6--9-|
    |-15--16--|-17-18-19-----------7-|
    |---------|----------------------|
    |
    |-20--21--|----------------------|
    |---------|-------------------21-|
    |---------|-19-20-21----------21-|
    |---------|-------------------21-|
    |---------|----------21-22-23----|
    |---------|----------------------||--------16----------------------|-----------------|
    |-----17-------17-17-19----17-17-|-----------------|
    |-(9)-19----------21-------21-19-|-18-19-18--------|
    |-(9)----------------------------|----------19-----|
    |-(7)----------------------------|--------------19-|
    |--------------------------------|-----------------|
    |
    |------0-24-21----24-21-19----19-|----------16--19-|
    |-----------24-21-------21-19----|-21-19----19-----|
    |-21-----------------------------|----21-18--------|
    |--------------------------------|-----------------|
    |--------------------------------|-----------------|
    |--------------------------------|-----------------|
    
    
    |----------------21-(21)--------------|------------------14----15----|
    |-19-------------22-(22)-----------21-|-(21)-------------16----15----|
    |-19-------------21-(21)-21-21-----21-|-(21)-------------16----16----|
    |-19---------------------------2-2-21-|-(21)---2---2---2-------------|
    |-------------------------------------|------------------------------|
    |-17-17-17-17-17----------------------|---------------------12-------|
    |
    |-24-24-----------0---0-------------0-|------0-0-0-0--24--0-----0----|
    |-------------------------------------|------------------------------|
    |-------------------------------------|---------------------23-------|
    |-------------------------------------|------------------------------|
    |-------------------------------------|------------------------------|
    |-------------------------------------|------------------------------|
    
    
                                                              2/4
    |-(15)-15----14----12-12--|-13--13----12--(12)-12-----10-|----11----10-|
    |-(15)-15----15----14-14--|-13--13----13--(13)-13-----12-|----11----10-|
    |-(16)-16----14----14-14--|-14--14----12--(12)-12-----12-|----12----12-|
    |-------------------------|------------------------------|-------------|
    |-------------------------|------------------------------|-------------|
    |---------12----12--------|--------12--------------12----|-12----------|
    |
    |-------------------------|-20---0--0-24----0--24--22----|--0--0-23-22-|
    |-------------------------|-23------------------------20-|-------------|
    |--23---------------------|------------------------------|-------------|
    |---------24----------19--|------------------------------|-------------|
    |------22----24-----------|------------------------------|-------------|
    |---------------22-21-----|------------------------------|-------------||-(10)---------------10---(10)------------------|
    |-(10)---------------10---(10)------------------|
    |-(12)---------------11---(11)------------------|
    |-----------------------------------------------|
    |--------------------------------12----14----15-|
    |-----------------------------------------------|
    |
    |---0--0-22----------22-0---0--0-22-------------|
    |-----------22-20-22----------------22----------|
    |--------------------------------------23-------|
    |-----------------------------------------24-22-|
    |-----------------------------------------------|
    |-----------------------------------------------|
    
    
                       
    |----------------------------|-----3--1----|
    |----------------------------|--6--3--1--3-|
    |----12----------------------|--5--------2-|
    |-14----10--8--7--9----------|-------------|
    |----------------12-10--8--7-|-------------|
    |----------------------------|-------------|
    |
    |----------------------------|-17-19-17----|
    |----20----------------------|-18-20-18----|
    |-21----18-------------------|-------------|
    |----------20-19-20----------|----------19-|
    |----------------24-22-20-19-|-------------|
    |----------------------------|-------------||-------5-----------------7--------7--8----------|
    |--(3)-----3--3-----3--5-----5--------------6----|
    |--(2)-----------2-----------------------7-------|
    |-------------------------------7--------------7-|
    |------------------------------------------------|
    |------------------------------------------------|
    |
    |------------------------------------------------|
    |------17----------------19----------------------|
    |---------------------------------23-24----------|
    |-(19)----17-19----19-21----21-------------22----|
    |---------------17----------------------22-------|
    |------------------------------22-------------22-|
    
    
    |--------8-13-15-17-------12-------10--------------|
    |--6--8-------------15-------10--8----10--8-----5--|
    |----------------------14--------------------7-----|
    |--------------------------------------------------|
    |--------------------------------------------------|
    |--------------------------------------------------|
    |
    |-------20--0--0--0-22----24-------22--------------|
    |----20----------------22----22-20----22-20----17--|
    |-22----------------------------------------19-----|
    |--------------------------------------------------|
    |--------------------------------------------------|
    |--------------------------------------------------||-------------------------|-----------------------|
    |-------------------------|----15-(15)------------|
    |--5----------------------|-14-14-(14)-12-(12)----|
    |-----7--5----------------|-14-12-(12)-12-(12)-15-|
    |-----------7--7--9-10-11-|-12-12-(12)---------15-|
    |----------------13-------|------------15-(15)-13-|
    |
    |-------------------------|-----------------------|
    |-------------------------|-----------------------|
    |-17----------------------|----19-(19)------------|
    |----19-17----------17-18-|-19---------17-(17)-15-|
    |----------19-19-20-21----|-----------------------|
    |----------------24-------|-----------------------||-------------------------------14-14-------15-15-|
    |-------------------------------16-16-------15-15-|
    |-------------------------------16-16-------16-16-|
    |-14----------------------------------------------|
    |-14----------------------------------------------|
    |-12----12----12----12----12----------12----------|
    |
    |-------------------------12-16----14-------15-19-|
    |----------------------12-------16----16----------|
    |-16----------16----13-------------------16-------|
    |----18----18----14-------------------------------|
    |-------19----------------------------------------|
    |-------------------------------------------------|
    
    
    |-15-15-15----------14-14-------12-12-12-12-12-12-|
    |-15-15-15----------15-15-------14-14-14-14-14-14-|
    |-16-16-16----------14-14-------14-14-14-14-14-14-|
    |-------------------------------------------------|
    |-------------------------------------------------|
    |-------------12----------12----------------------|
    |
    |----------------------17-------17-21-------------|
    |-20----------------19----19----------22----------|
    |----19----------19----------19----------21-------|
    |-------21----21----------------------------23----|
    |----------22----------------------------------24-|
    |-------------------------------------------------|
    
    
    |-13--------------12-12-12----12----------10----|
    |-13--------------13-13-13----13----------12----|
    |-14--------------12-12-12----12----------12----|
    |-----------------------------------------------|
    |-----------------------------------------------|
    |-----------12----------------------12----------|
    |
    |-------1-5--8-13-12-15----------15-20-24--0-0--|
    |-----------------------17----17----------------|
    |--------------------------17-------------------|
    |-22--------------------------------------------|
    |----24-----------------------------------------|
    |-----------------------------------------------||-------11---------10-10-|-10------------10-10-10--------------------|
    |-------11---------10-10-|-10------------10-10-10--------------------|
    |-------12---------12-12-|-12------------11-11-11--------------------|
    |------------------------|--------------------------12---14----15----|
    |------------------------|-------------------------------------------|
    |-12---------12----------|-------------------------------------------|
    |
    |--0-22--0-0--0-23--0--0-|--0-22-0-0-0-0--0-22--0-0--0-0-24-22-20----|
    |------------------------|----------------------------------------22-|
    |------------------------|-------------------------------------------|
    |------------------------|-------------------------------------------|
    |------------------------|-------------------------------------------|
    |------------------------|-------------------------------------------|
    |--------------------------------------|
    |---------------------------15---------|
    |-------17-------------17--------------|
    |-17---------15---17-------------17----|
    |--------------------------------15----|
    |--------------------------------------|
    |
    |-------22-0--0-0--0-0-24-0--0-0-22----|
    |----22-----------------------------24-|
    |-22-----------------------------------|
    |--------------------------------------|
    |--------------------------------------|
    |--------------------------------------|
    |---------|-------------------|-----------*|
    |---------|-------------------|-----------*|
    |---------|-------------------|--9--------*|
    |-18--18--|-----------4--5--6-|--9--------*|
    |-15--16--|-17-18-19----------|--7--------*|
    |---------|-------------------|-----------*|
    |
    |-20--21--|-------------------|-----------*|
    |---------|-------------------|-21--------*|
    |---------|-19-20-21----------|-21--------*|
    |---------|-------------------|-----------*|
    |---------|----------21-22-23-|-----------*|
    |---------|-------------------|-----------*|
     

    Тональность:

    Нет текста!



    Назад
    Рекомендуем посмотреть другие песни исполнителя «Dream Theater»:

    • Комментарии Facebook ()
    • Комментарии ВКонтакте



    Добавить в Избранное Браузера
    Сохранить здесь Очистить


    x

    0


    +
    -

    +
    -

    -

    Авторизация





    Зарегистрироваться

    M

    Дата и время

    • 04:58:02
       

    Социальные ссылки


    Наши приложения

    • Muzbank App Play Market
    • Muzbank Amazon App