MUZBANK



A Most Complete Bank Of Music Information

МУЗЫКАЛЬНО-ИНФОРМАЦИОННЫЙ БАНК

Поиск по сайту







    DDropkick Murphys • Fields Of Athenry (аккорды и текст - chords & lyrics)


    373

    Print

    Видео «Fields Of Athenry (Dropkick Murphys)»

    Видео клипы к песне подбираются автоматически сайтом youtube. Возможны некоторые несоответствия клипов песне.

    ↑ Спрятать рекламу ↑



    Download



     
    
    
    ARTIST: Dropkick Murphys Cover
    ALBUM:Black out(out june 6th june 9th 2003)
    TRACK:Fields Of Athenry
    Email: Greenday_rhcp2002@yahoo.co.uk
    
      .. = Palm Mute
    
    
    Intro
    e|-----------------------------6-6666-| 
    B|-----------------------------6-6666-| 
    G|-----------------------------7-7777-| 
    D|-3333-5-3--666-5-3--1-----8~--------| 
    A|-3333-3-3--333-3-3--1~----8~--------| 
    E|--------------------------6~--------| 
    
    
    Verse1
    |----------------------------------------------------------------------- 
    |----------------------------------------------------------------------- 
    |-888888-888888--------888888---------------888888---------------------- 
    |-888888-888888-666666-888888-888888-888888-888888-666666-888888-888888- 
    |-666666-666666-666666-666666-888888-888888-666666-666666-888888-888888- 
    |---------------444444--------666666-666666--------444444-666666-666666-
      . . .. .. . . . . . . .. . . .. .. . . ..  . . . ... ..  . ..  .. ..    
    
     ----------------------------------------------------------| 
     ----------------------------------------------------------| 
     -888888-888888--------888888----------------------8888888-| 
     -888888-888888-666666-888888-888888-888888-888888-8888888-| 
     -666666-666666-666666-666666-888888-888888-888888-6666666-| 
     ---------------444444--------666666-666666-666666---------| 
      . .. . .. ..  ... .. .. .. .. ...  ... .. ...
    
    
    Chorus 
    |----------------------------------------------------------------| 
    |----------------------------------------------------------------| 
    |-8888888---------8888888-5555555-8888888-5555555----------------| 
    |-8888888-6666666-8888888-5555555-8888888-5555555-888888888888---| 
    |-6666666-6666666-6666666-3333333-6666666-3333333-888888888888---| 
    |---------4444444---------------------------------666666666666---| 
    
    
     ----------------------------------------------------------------| 
     ----------------------------------------------------------------| 
     -8888888---------8888888-------------------8888888-888888888888-| 
     -8888888-6666666-8888888-88888888888888888-8888888-888888888888-| 
     -6666666-6666666-6666666-88888888888888888-6666666-666666666666-| 
     ---------4444444---------66666666666666666----------------------| 
    
    
    Verse2:PLAY THE SAME AS FIRST VERSE.
    
    Chorus2
    |--------------------------------------------------------------
    |-------------------------------------------------------------- 
    |-8888888---------8888888-5555555-8888888-5555555-------------- 
    |-8888888-6666666-8888888-5555555-8888888-5555555-888888888888- 
    |-6666666-6666666-6666666-3333333-6666666-3333333-888888888888-
    |---------4444444---------------------------------666666666666- 
    
    
     ---------------------------------------------------| 
     ---------------------------------------------------| 
     -8888888---------8888888-------------------8888888-| 
     -8888888-6666666-8888888-88888888888888888-8888888-| 
     -6666666-6666666-6666666-88888888888888888-6666666-| 
     ---------4444444---------66666666666666666---------| 
    
    
    Solo
    |---------------------------------------------------------
    |---------------------------------------------------------
    |---------------------------------------------------------
    |-8-8-10-8-6-6/5-------5---5-8--6-6/5-5--5/3-333333333333-
    |-----------------6-6-8-----------------------------------
    |---------------------------------------------------------
    
     ----------------------------------------------------------
     ----------------------------------------------------------
     ----------------------------------------------------------
     -8--8-10-8-6-6/5-5---5-5-6-3--3-3-3-3-5-3--6-6-6-5-3-1-1~-
     ----------------------------------------------------------
     ----------------------------------------------------------
    
     -------------------------| 
     -------------------------| 
     -------------------------| 
     --3333-5-3--666-5-3-1-1--| 
     --3333-3-3--333-3-3-1-1~-| 
     -------------------------| 
    
    
    Verse 3 - PLAY VERSE SAME AS ABOVE BUT NOT PALM MUTED.
    
    
    Part at end of bag pipe solo
    |------------------------------------------------------|
    |------------------------------------------------------|
    |-888888--------888888--------88888888--------88888888-|
    |-888888-666666-888888-888888-88888888-888888-88888888-|
    |-666666-666666-666666-888888-66666666-888888-66666666-|
    |--------444444--------666666----------666666----------|
      . . .. .. ..  . . .. .. .. 
    
    
    Play Chorus again
    
    
    OUTRO
    |--------------------------------------|
    |--------------------------------------|
    |-888888888888888888----------------8~-|
    |-888888888888888888-88888888---6~--8~-|
    |-666666666666666666-88888888---6~--6~-|
    |--------------------66666666---4~-----|
    
    
    
    This Tab is long and could be confusing so this is the order to play all of it in
    
    ORDER
    Intro 
    Verse 1 
    Chorus 
    Verse 2 
    Chorus 2 
    Solo 
    Verse3 (same as other verse but no palm muted)
    Bagpipe Part (listen to the song for whem to come in)
    Chorus 2 
    Outro
    
    NOTES:I HAVENT TABBED THE 2ND GUITAR YET...IL GET AROUND TO THAT.
          This is a great song. The dropkicks rock. They are
          getting better with every new record. listen to the song for correct    
          timing.
          Anyway any comments to e-mail.
     

    Тональность:

    Нет текста!



    Назад
    Рекомендуем посмотреть другие песни исполнителя «Dropkick Murphys»:

    • Комментарии Facebook ()
    • Комментарии ВКонтакте



    Добавить в Избранное Браузера
    Сохранить здесь Очистить


    x

    0


    +
    -

    +
    -

    -

    Авторизация





    Зарегистрироваться

    M

    Дата и время

    • 19:13:38
       

    Социальные ссылки


    Наши приложения

    • Muzbank App Play Market
    • Muzbank Amazon App