MUZBANK



A Most Complete Bank Of Music Information

МУЗЫКАЛЬНО-ИНФОРМАЦИОННЫЙ БАНК








    DDropkick Murphys • World Full Of Hate (аккорды и текст - chords & lyrics)


    272

    Print

    Видео «World Full Of Hate (Dropkick Murphys)»

    Видео клипы к песне подбираются автоматически сайтом youtube. Возможны некоторые несоответствия клипов песне.

    ↑ Спрятать рекламу ↑






     
    
    
    Intro:
    -----------
    -----------
    -----------
    ---0-0-----
    -------0---
    -----------
    Verse:(strum all the chords through the whole song)
    ------------------------------------------------------------------------
    ------------------------------------------------------------------------
    --------------------------5-5-5-5-5-5-5-5-5-5-5-5-5-5-5-5-5-5-5-5-5-5---
    ---5-5-5-5-5-5-5-5-5-5-5--5-5-5-5-5-5-5-5-5-5-5-5-5-5-5-5-5-5-5-5-5-5---
    ---5-5-5-5-5-5-5-5-5-5-5--3-3-3-3-3-3-3-3-3-3-3-3-3-3-3-3-3-3-3-3-3-3---
    ---3-3-3-3-3-3-3-3-3-3-3------------------------------------------------
    
    -----------------------
    -----------------------
    -----------------------
    ---5-5-5-5-5--7-7-7-7-7
    ---5-5-5-5-5--7-7-7-7-7
    ---3-3-3-3-3--5-5-5-5-5
    
    ----------------
    ----------------
    ----------------
    ----------------
    ---3-2-0--------
    ----------3-5---
    
    Chorus:
    ------------------------------------------------------------------------
    ------------------------------------------------------------------------
    --------------------------5-5-5-5-5-5-5-5-5-5-5-5-5-5-5-5-5-5-5-5-5-5---
    ---5-5-5-5-5-5-5-5-5-5-5--5-5-5-5-5-5-5-5-5-5-5-5-5-5-5-5-5-5-5-5-5-5---
    ---5-5-5-5-5-5-5-5-5-5-5--3-3-3-3-3-3-3-3-3-3-3-3-3-3-3-3-3-3-3-3-3-3---
    ---3-3-3-3-3-3-3-3-3-3-3------------------------------------------------
    
    -----------------------
    -----------------------
    -----------------------
    ---5-5-5-5-5--7-7-7-7-7
    ---5-5-5-5-5--7-7-7-7-7
    ---3-3-3-3-3--5-5-5-5-5
     

    Тональность:

    Нашли ошибку?



    Назад
    Рекомендуем посмотреть другие песни исполнителя «Dropkick Murphys»:

    • Комменты Fb ()
    • Комменты ВК



    Добавить в Избранное Браузера
    Сохранить здесь Очистить


    x

    0


    +
    -

    +
    -

    -

    Авторизация





    Зарегистрироваться

    M

    Дата и время

    • 18:57:14
       

    Социальные ссылки


    Наши приложения

    • Muzbank App Play Market
    • Muzbank Amazon App