MUZBANK



A Most Complete Bank Of Music Information

МУЗЫКАЛЬНО-ИНФОРМАЦИОННЫЙ БАНК

Поиск по сайту







    DDry Cell • Body Crumbles (аккорды и текст - chords & lyrics)


    164

    Print

    Видео «Body Crumbles (Dry Cell)»

    Видео клипы к песне подбираются автоматически сайтом youtube. Возможны некоторые несоответствия клипов песне.

    ↑ Спрятать рекламу ↑



    Download



     
    
    
    Intro/Verse:
    
    G/-6---6-6-8-9-8h9p-----9---9-8---
    D/---6--------------9-7---6-----9-
    A/--------------------------------
    E/--------------------------------
    
    G/-6---6-6-8-9-8h9p---9/11-8-9-8h9p-
    D/---6--------------9---------------
    A/----------------------------------
    E/----------------------------------
    
    
    Chorus:
    
    G/-----------------------------
    D/-------7-7-7-----------------
    A/4-4--7-------O-7-7-5-5-5-5-0-
    E/-----------------------------
    
    G/-----------------------------
    D/-------7-7-7-------9-9-9-9---
    A/4-4--7-------0-7-7---------0-
    E/-----------------------------
    
    Bridge:
    
    G/----------------------------------------------------
    D/----------------------------------------------------
    A/0-0-0-0-0-0-0-0-------------------------------------
    E/----------------1-1-1-1-1-1-1-1-1-0-0-0-0-0-0-0-0-0-
     

    Тональность:

    Нет текста!



    Назад
    Рекомендуем посмотреть другие песни исполнителя «Dry Cell»:

    • Комментарии Facebook ()
    • Комментарии ВКонтакте



    Добавить в Избранное Браузера
    Сохранить здесь Очистить


    x

    0


    +
    -

    +
    -

    -

    Авторизация





    Зарегистрироваться

    M

    Дата и время

    • 21:14:32
       

    Социальные ссылки


    Наши приложения

    • Muzbank App Play Market
    • Muzbank Amazon App