MUZBANK



A Most Complete Bank Of Music Information

МУЗЫКАЛЬНО-ИНФОРМАЦИОННЫЙ БАНК

Поиск по сайту







    DDry Kill Logic • Nightmare (аккорды и текст - chords & lyrics)


    206

    Print

    Видео «Nightmare (Dry Kill Logic)»

    Видео клипы к песне подбираются автоматически сайтом youtube. Возможны некоторые несоответствия клипов песне.

    ↑ Спрятать рекламу ↑



    Download



     
    
    
    Album:The darker side of nonsense 
    MUSIC;NIGHTMARE
    ARTIST;DRY KILL LOGIC
    
    Tuning:Drop D then tune down one whole step (C,G,C,F,A,D) 
    *=Palm Mute 
    /=Slide 
    |H|=Harmonic 
    Intro:Mild distortion 
    
    D------------------------
    A------------------------
    F------------------------
    C------------------------
    G------------------------
    C-2-3-2-0-2-0-2-0-2-0-2-0 
    ************************
    
    
    D===-------------------------
    A-=--------------------------
    F----------------------------
    C----------------------------
    G---------------------------- 
    C-2-3-2-0-2-0-2-0-2-0-2-0-2/3
    ************************** 
    
    
    Second intro/Chorus:(Heavy distortion)
    
     
    D---------------------------
    A---------------------------
    F----------------------------
    C-2-3-2-0-2-0-2-0-2-0-2-0-2/3 
    G-2-3-2-0-2-0-2-0-2-0-2-0-2/3 
    C-2-3-2-0-2-0-2-0-2-0-2-0-2/3
    
     
    Verse: 
    
    D--------------------------
    A--------------------------
    F--------------------------
    C-0-0-X-0--0---0-1-1-1-1-3-3-3-3 
    G-0-0-X-0--0---0-1-1-1-1-3-3-3-3 
    C-0-0-X-0--0---0-1-1-1-1-3-3-3-3 
    Interlude: 
    the first intro riff, but the other guitar in the background goes like this 
    
    
     |H|*******|H|
    D-------------
    A-------------
    F-------------
    C-------------
    G------------- 
    C-4-0-0-0-0-3- 
    
    
    Ending: 
    second intro rif 
     
    |H| 
    D-----
    A-----
    F-----
    C-----
    G-----
    C--4--
     
    END
     

    Тональность:

    Нет текста!



    Назад
    Рекомендуем посмотреть другие песни исполнителя «Dry Kill Logic»:

    • Комментарии Facebook ()
    • Комментарии ВКонтакте



    Добавить в Избранное Браузера
    Сохранить здесь Очистить


    x

    0


    +
    -

    +
    -

    -

    Авторизация





    Зарегистрироваться

    M

    Дата и время

    • 15:55:11
       

    Социальные ссылки


    Наши приложения

    • Muzbank App Play Market
    • Muzbank Amazon App