MUZBANK



A Most Complete Bank Of Music Information

МУЗЫКАЛЬНО-ИНФОРМАЦИОННЫЙ БАНК

Поиск по сайту







    DDry Kill Logic • Nightmare (аккорды и текст - chords & lyrics)


    154

    Print

    Видео «Nightmare (Dry Kill Logic)»

    Видео клипы к песне подбираются автоматически сайтом youtube. Возможны некоторые несоответствия клипов песне.

    ↑ Спрятать рекламу ↑



    Download



     
    
    
    This is the 100% correct tab
    enjoy!
    
    Drop C Tuning C-G-C-F-A-D
    Intro: Mild Distorstion
    
    C-6-5-0-3-0-6-5-0-3-0-5-------------6-5-0-3-0-6-5-0-3-0-5/6-----------------x2
    G-----------------------------------------------------------------------------
    C-----------------------------------------------------------------------------
    F-----------------------------------------------------------------------------
    A-----------------------------------------------------------------------------
    D-----------------------------------------------------------------------------
    
    Then
    
    C-6-5-0-3-0-3-0-5-6 x4
    G------------------
    C------------------
    F------------------
    A------------------
    D------------------
    
    Then Heavy Distortion (CHORUS)and main riff
    
    C-6-5-0-3-0-3-0-5-6-
    G-6-5-0-3-0-3-0-5-6-/  X4
    C-------------------
    F-------------------
    A-------------------
    D-------------------
    
    Verse
    
    C-0-0--0-0-0-1-3------0-0--0-0-0-1-X-X
    G-0-0--0-0-0-1-3------0-0--0-0-0-1-X-X
    C-------------------------------------
    F-------------------------------------
    A-------------------------------------
    D-------------------------------------
    
    Bridge
    
    --PM--PM--PM--PM--PM--
    C-0-0-0-0-0-0-0-0-0-0---------------
    G-----------------------------------
    C-----------------------------------       x2
    F-----------------------------------
    A-----------------------2-2-2-2-2-2-
    D-----------------------------------
    
    Outro is main riff
     

    Тональность:

    Нет текста!



    Назад
    Рекомендуем посмотреть другие песни исполнителя «Dry Kill Logic»:

    • Комментарии Facebook ()
    • Комментарии ВКонтакте



    Добавить в Избранное Браузера
    Сохранить здесь Очистить


    x

    0


    +
    -

    +
    -

    -

    Авторизация





    Зарегистрироваться

    M

    Дата и время

    • 01:01:31
       

    Социальные ссылки


    Наши приложения

    • Muzbank App Play Market
    • Muzbank Amazon App