MUZBANK



A Most Complete Bank Of Music Information

МУЗЫКАЛЬНО-ИНФОРМАЦИОННЫЙ БАНК

Поиск по сайту







    DDuran Duran • New Religion (аккорды и текст - chords & lyrics)


    281

    Print

    Видео «New Religion (Duran Duran)»

    Видео клипы к песне подбираются автоматически сайтом youtube. Возможны некоторые несоответствия клипов песне.

    ↑ Спрятать рекламу ↑



    Download


     
    
    
    Artist: Duran Duran
    Song Title: New Religion
    Album: Rio (1982)
    Song Duration: 05:32 min
    Tabbed by: Vuk Krajacic (krajac@eunet.yu)
    
    Instructions:
    
    (     ) - Song time elapsed 
    
    s - Slap
    
     - Slide down
    
    h - Hammer on 
    
    
    Main riff (00:36)
                                
    G|----------------------------------|
    D|------------5-0-------------5-0---|
    A|------557------------557--------|
    E|--0---------------0---------------|
    
    G|----------------------------------|
    D|------------5-0-------------5-0---|
    A|------557------------557--------|
    E|--0---------------0---------------|
    
    G|----------------------------------|
    D|------------5-0-------------5-0---|
    A|------557------------557--------|
    E|--0---------------0---------------|
    
    
    Riff end (00:48)
    
    G|---------------------------------------------------|
    D|------------5-5------------------------------------|
    A|------557--------3-3-33--3-3-33--3-3-33--5-5-6-6--|
    E|--0------------------------------------------------|
    
    
    Main riff (00:54)
    
    G|----------------------------------|
    D|------------5-0-------------5-0---|
    A|------557------------557--------|
    E|--0---------------0---------------|
    
    G|----------------------------------|
    D|------------5-0-------------5-0---|
    A|------557------------557--------|
    E|--0---------------0---------------|
    
    G|----------------------------------|
    D|------------5-0-------------5-0---|
    A|------557------------557--------|
    E|--0---------------0---------------|
    
                               s  s
    G|-------------------------6--7---|
    D|------------5-0-----------------|
    A|------557------------0h4s-5s---|
    E|--0---------------0-------------|
    
    
    Main riff (01:09)
    
    G|----------------------------------|
    D|------------5-0-------------5-0---|
    A|------557------------557--------|
    E|--0---------------0---------------|
    
    G|--------------------------6--7--|
    D|------------5-0-----------------|
    A|------557------------0h4--5----|
    E|--0---------------0-------------|
    
    
    G|----------------------------------|
    D|------------5-0-------------5-0---|
    A|------557------------557--------|
    E|--0---------------0---------------|
    
                               s  s
    G|-------------------------6--7---|
    D|------------5-0-----------------|
    A|------557------------0h4s-5s---|
    E|--0---------------0-------------|
    
    G|----------------------------------|
    D|------------5-0-------------5-0---|
    A|------557------------557--------|
    E|--0---------------0---------------|
    
    G|---------------------------------|
    D|------------5-0------------------|
    A|------557------------0-4-4-5-5--|
    E|--0---------------0--------------|
    
    G|----------------------------------|
    D|------------5-0-------------5-0---|
    A|------557------------557--------|
    E|--0---------------0---------------|
    
    G|---------------------------------|
    D|------------5-0------------------|
    A|------557------------0-5-5-0-0--|
    E|--0---------------0--------------|
    
    
    Break (01:40)
    
    G|---------------------------|
    D|---------------------------|
    A|--5---5-5----3--3----------|
    E|------------------0-0-3-3--| 
    
    G|---------------------------------|
    D|------------5-0-------------5-5--|
    A|------557------------557-------|
    E|--0---------------0--------------|
    
    G|-----------------------------|
    D|-----------------------------|
    A|--5---5--55----3--3----------|
    E|--------------------0-0-3-3--| 
    
    
    Main riff (01:52)
    
    G|----------------------------------|
    D|------------5-0-------------5-0---|
    A|------557------------557--------|
    E|--0---------------0---------------|
    
                               s  s
    G|-------------------------6--7---|
    D|------------5-0-----------------|
    A|------557------------0h4s-5s---|
    E|--0---------------0-------------|
    
    G|----------------------------------|
    D|------------5-0-------------5-0---|
    A|------557------------557--------|
    E|--0---------------0---------------|
    
    G|---------------------------------|
    D|------------5-0------------------|
    A|------557------------0-4-4-5-5--|
    E|--0---------------0--------------|
    
    G|----------------------------------|
    D|------------5-0-------------5-0---|
    A|------557------------557--------|
    E|--0---------------0---------------|
    
                               s  s
    G|-------------------------6--7---|
    D|------------5-0-----------------|
    A|------557------------0h4s-5s---|
    E|--0---------------0-------------|
    
    G|----------------------------------|
    D|------------5-0-------------5-0---|
    A|------557------------557--------|
    E|--0---------------0---------------|
    
    G|----------------------------------|
    D|------------5-0-------------5-0---|
    A|------557------------557--------|
    E|--0---------------0---------------|
    
    G|----------------------------------|
    D|------------5-0-------------5-0---|
    A|------557------------557--------|
    E|--0---------------0---------------|
    
    G|----------------------------------|
    D|------------5-0-------------5-5---|
    A|------557------------557--------|
    E|--0---------------0---------------|
    
    
    Chorus (02:31)
    
    G|----------------------------------------|
    D|----------------------------------------|
    A|--5--5-5---3--3-3---0--0-0--0---------0-|
    E|-----------------------------3--3-3-3---| 
    
    G|----------------------------------------|
    D|----------------------------------------|
    A|--5--5-5---3--3-3---0--0-0--0-------0-0-|
    E|-----------------------------3--3-33----| 
    
    
    Main riff (02:46)
    
    G|----------------------------------|
    D|------------50-------------5-0----|
    A|------557------------557--------|
    E|--0---------------0---------------|
    
                               s  s
    G|-------------------------6--7---|
    D|------------5-0-----------------|
    A|------557------------0h4s-5s---|
    E|--0---------------0-------------|
    
    G|----------------------------------|
    D|------------5-0-------------5-0---|
    A|------557------------557--------|
    E|--0---------------0---------------|
    
    G|----------------------------------|
    D|------------5-0-------------5-0---|
    A|------557------------557--------|
    E|--0---------------0---------------|
    
    G|----------------------------------|
    D|------------5-0-------------5-0---|
    A|------557------------557--------|
    E|--0---------------0---------------|
    
    G|--------------------------6--7--|
    D|------------5-0-----------------|
    A|------557------------0h4--5----|
    E|--0---------------0-------------|
    
    G|----------------------------------|
    D|------------5-0-------------5-0---|
    A|------557------------557--------|
    E|--0---------------0---------------|
    
    G|----------------------------------|
    D|------------5-0-------------5-0---|
    A|------557------------557--------|
    E|--0---------------0---------------|
    
    G|----------------------------------|
    D|------------5-0-------------5-0---|
    A|------557------------557--------|
    E|--0---------------0---------------|
    
    G|----------------------------------|
    D|------------5-0-------------5-5---|
    A|------557------------557--------|
    E|--0---------------0---------------|
    
    
    Chorus (03:24)
    
    G|----------------------------------------|
    D|----------------------------------------|
    A|--5--5-5---3--3-3---0--0-0--0---------0-|
    E|-----------------------------3--3-3-3---| 
    
    G|----------------------------------------|
    D|----------------------------------------|
    A|--5--5-5---3--3-3---0--0-0--0-------0-0-|
    E|-----------------------------3--3-33----|
    
    
    Main riff II (03:39)
    
    G|---------------6---------------6----|
    D|------------55--------------55------|
    A|------557------------557----------|
    E|--0---------------0-----------------|
    
    G|---------------6--------------------|
    D|------------55----------------------|
    A|------557------------57--3-4-5---|
    E|--0---------------0-----------------|
    
    G|---------------6---------------6----|
    D|------------55--------------55------|
    A|------557------------557----------|
    E|--0---------------0-----------------|
    
    G|---------------6--------------------|
    D|------------55----------------------|
    A|------557------------57--3-4-5---|
    E|--0---------------0-----------------|
    
    G|---------------6---------------6----|
    D|------------55--------------55------|
    A|------557------------557----------|
    E|--0---------------0-----------------|
    
    G|---------------6--------------------|
    D|------------55----------------------|
    A|------557------------57--3-4-5---|
    E|--0---------------0-----------------|
    
    G|---------------6---------------6----|
    D|------------55--------------55------|
    A|------557------------557----------|
    E|--0---------------0-----------------|
    
    G|---------------6---------------6----|
    D|------------55--------------55------|
    A|------557---------------55---------|
    E|--0---------------0-----------------|
    
    G|---------------6---------------6----|
    D|------------55--------------55------|
    A|------557------------557----------|
    E|--0---------------0-----------------|
    
    G|---------------6---------------6----|
    D|------------55--------------55------|
    A|------557------------557----------|
    E|--0---------------0-----------------|
    
    G|---------------6---------------6----|
    D|------------55--------------55------|
    A|------557------------557----------|
    E|--0---------------0-----------------|
    
    G|---------------6---------------|
    D|------------55-----------------|
    A|------557----------------4-5--|
    E|--0---------------0-0----------|
    
    
    Main riff (04:24)
    
    G|----------------------------------|
    D|------------5-0-------------5-0---|
    A|------557------------557--------|
    E|--0---------------0---------------|
    
    G|----------------------------------|
    D|------------5-0-------------5-5---|
    A|------557------------557--------|
    E|--0---------------0---------------|
    
    G|----------------------------------|
    D|------------5-0-------------5-0---|
    A|------557------------557--------|
    E|--0---------------0---------------|
    
    G|----------------------------------|
    D|------------5-0-------------------|
    A|------557------------0-4-4-5-5---|
    E|--0---------------0---------------|
    
    G|----------------------------------|
    D|------------5-0-------------5-0---|
    A|------557------------557--------|
    E|--0---------------0---------------|
    
    G|----------------------------------|
    D|------------5-0-------------5-0---|
    A|------557------------557--------|
    E|--0---------------0---------------|
    
    G|----------------------------------|
    D|------------5-0-------------5-0---|
    A|------557------------557--------|
    E|--0---------------0---------------|
    
    G|----------------------------------|
    D|------------5-0-------------5-5---|
    A|------557------------557--------|
    E|--0---------------0---------------|
    
    
    Chorus (04:54)
    
    G|-------------------------------------------------|
    D|-------------------------------------------------|
    A|--5--5-5---3--3-3---0-0-00-0-0-00--------------0-|
    E|----------------------------------3-3-33-3-3-33--| 
    
    G|-------------------------------------------------|
    D|-------------------------------------------------|
    A|--5--5-5---3--3-3---0-0-00-0-0-00----------------|
    E|----------------------------------3-3-33-3-3-333-| 
    
    G|---------------------------------------------------|
    D|---------------------------------------------------|
    A|--5--5-5--5-3--3-3--3-0-0-00-0-0-00----------------|
    E|------------------------------------3-3-33-3-3-333-| 
    
    G|---------------------------------------------------|
    D|---------------------------------------------------|
    A|--5--5-5--5-3--3-3--3-0-0-00-0-0-00----------------|
    E|------------------------------------3-3-33-3-3-333-| 
    
    G|---------------------------------------------------|
    D|---------------------------------------------------|
    A|--5--5-5--5-3--3-3--3-0-0-00-0-0-00----------------|
    E|------------------------------------3-3-33-3-3-333-| 
    
    
    End.
    
    
    
    Please send your comments to krajac@eunet.yu
     

    Тональность:

    Нет текста!



    Назад
    Рекомендуем посмотреть другие песни исполнителя «Duran Duran»:

    • Комментарии Facebook ()
    • Комментарии ВКонтакте



    Добавить в Избранное Браузера
    Сохранить здесь Очистить


    x

    0


    +
    -

    +
    -

    -

    Авторизация





    Зарегистрироваться

    M

    Дата и время

    • 21:16:47
       

    Социальные ссылки


    Наши приложения

    • Muzbank App Play Market
    • Muzbank Amazon App