MUZBANK



A Most Complete Bank Of Music Information

МУЗЫКАЛЬНО-ИНФОРМАЦИОННЫЙ БАНК

Поиск по сайту







    DDying Fetus • Grotesque Impalement (аккорды и текст - chords & lyrics)


    331

    Print

    Видео «Grotesque Impalement (Dying Fetus)»

    Видео клипы к песне подбираются автоматически сайтом youtube. Возможны некоторые несоответствия клипов песне.

    ↑ Спрятать рекламу ↑



    Download



     
    
    
    5 string bass in standard tuning...
    ...last time i sent this in it wasnt
    quite 100% so i perfected it... enjoy
    
    
    G|--------------------------------
    D|--------------------------------
    A|--------------------------------
    E|--5-----5-----5-----------------
    B|----343---343---343----666-777--
    
    G|---------------------------------------------
    D|---------------------------------------------
    A|--------------------66-------------55556666--
    E|---------------------------------------------
    B|--3-3-3-3-3-3-3-3-3----3-3-3-3-3-3-----------
    
    G|------------------------------------
    D|------------------------------------
    A|--5555666655554444555566665555------
    E|------------------------------------
    B|-------------------------------6~---
    
    G|------------------|---------------
    D|------------------|---------------
    A|------------------|---------------
    E|------------------|---------------
    B|--7-6-4~--7-6-3~--|--6p-7p-6p-7p--
    
    G|-----------------------------------|--------------
    D|-----------------------------------|--------------
    A|-----------------------------------|--------------
    E|-----------------------------------|--------------
    B|--4444444444-77-66-333333333-77-66-|--6p-7p-6p-7p-
    
    G|-------------------|-------------------
    D|-------------------|-------------------
    A|-------------------|-------------------
    E|-------------------|-------------------
    B|--6666-7-4444-6-3~-|-6666-7-4444-6-3p--
    
    G|--------------|--------------------
    D|--------------|--------------------
    A|--------------|--------------------
    E|--------------|--------------------
    B|--0-2-3-6-5-6-|--5p5p5p5p6p6p6p6p--
    
    G|-------------------------------------
    D|-------------------------------------
    A|-------------------------------------
    E|-------------------------5-4-444444--
    B|--6h5-6h5-333333-6h5-6h5-------------
    
    G|----------------------------------------------
    D|----------------------------------------------
    A|----------------------------------------------
    E|----------------------------------------------
    B|--6h5-33-6h5-33-6-7-6-33-6h5-33-6h5-4-333333--
    
    G|---------------------------------------------|------
    D|---------------------------------------------|------
    A|--------------------66-------------55556666--|------
    E|---------------------------------------------|------
    B|--3-3-3-3-3-3-3-3-3----3-3-3-3-3-3-----------|--3~--
    
    G|--------------------------------------------|------
    D|--------------------------------------------|------
    A|--------------------------------------------|------
    E|----6-5-----5---------66-55-------55--------|------
    B|--3-----6-5---5-4--33-------66-55----55-44--|--3~--
    
    G|------------------|--------------------------
    D|------------------|--------------------------
    A|------------------|--------------------------
    E|------------------|--------------------------
    B|--7-6-4~--7-6-3~--|--6p-7p-6p-7p-6p-7p-6p-7p-
    
    G|-----------------------------------|--------------
    D|-----------------------------------|--------------
    A|-----------------------------------|--------------
    E|-----------------------------------|--------------
    B|--4444444444-77-66-333333333-77-66-|--6p-7p-6p-7p-
    
    G|--------------------------------------
    D|--------------------------------------
    A|--------------------------------------
    E|--------------------------------------
    B|--6666-7-4444-6-3~--6666-7-4444-6-3~--
    
    G|-----------------------------
    D|-----------------------------
    A|-----------------------------
    E|-------5~--------------------
    B|--3~-3----3h5-3h6-3h5-3h6-3--
    
    Questions? HalfwittedZero@hotmail.com
     

    Тональность:

    Нет текста!



    Назад
    Рекомендуем посмотреть другие песни исполнителя «Dying Fetus»:

    • Комментарии Facebook ()
    • Комментарии ВКонтакте



    Добавить в Избранное Браузера
    Сохранить здесь Очистить


    x

    0


    +
    -

    +
    -

    -

    Авторизация





    Зарегистрироваться

    M

    Дата и время

    • 21:07:25
       

    Социальные ссылки


    Наши приложения

    • Muzbank App Play Market
    • Muzbank Amazon App