MUZBANK



A Most Complete Bank Of Music Information

МУЗЫКАЛЬНО-ИНФОРМАЦИОННЫЙ БАНК

Поиск по сайту







    DDynamite Hack • Anyway (аккорды и текст - chords & lyrics)


    242

    Print

    Видео «Anyway (Dynamite Hack)»

    Видео клипы к песне подбираются автоматически сайтом youtube. Возможны некоторые несоответствия клипов песне.

    ↑ Спрятать рекламу ↑



    Download



     
    
    
    verse
    ---------------------------------------------------------------------|
    ---------------------------------------------------------------------|
    --44444444-----------------------------------------------------------|
    --44444444--2222-4444--66666666--2222-4444---------------------------|
    --22222222--2222-4444--66666666--2222-4444---(2x)--------------------|
    ------------0000-2222--44444444--0000-2222---------------------------|
    
    ---------------------------------------------------------------------|
    ---------------------------------------------------------------------|
    -------------------------4444444444----------------------------------|
    --66666666-6-4-22222222--4444444444--44444444---(2x)-----------------|
    --66666666-6-4-22222222--2222222222--44444444------------------------|
    --44444444-4-2-00000000--------------22222222------------------------|
    
    
    chorus
    ---------------------------------------------------------------------|
    ---------------------------------------------------------------------|
    --44444444-----------------------------------------------------------|
    --44444444--2222-4444--66666666--2222-4444---------------------------|
    --22222222--2222-4444--66666666--2222-4444---(2x)--------------------|
    ------------0000-2222--44444444--0000-2222---------------------------|
    
    
    short guitar solo
    ---2-4-7-9-9b-9-7-4--2h4---------------------------------------------------------|
    --------------------------5-4--4-4h5-7--4h5-7------------------------------------|
    ---------------------------------------------------------------------------------|
    ---------------------------------------------------------------------------------|
    ---------------------------------------------------------------------------------|
    ---------------------------------------------------------------------------------|
     

    Тональность:

    Нет текста!



    Назад
    Рекомендуем посмотреть другие песни исполнителя «Dynamite Hack»:

    • Комментарии Facebook ()
    • Комментарии ВКонтакте



    Добавить в Избранное Браузера
    Сохранить здесь Очистить


    x

    0


    +
    -

    +
    -

    -

    Авторизация





    Зарегистрироваться

    M

    Дата и время

    • 17:30:43
       

    Социальные ссылки


    Наши приложения

    • Muzbank App Play Market
    • Muzbank Amazon App