MUZBANK



A Most Complete Bank Of Music Information

МУЗЫКАЛЬНО-ИНФОРМАЦИОННЫЙ БАНК

Поиск по сайту







    EEagles • New York Minute (аккорды и текст - chords & lyrics)


    283

    Print

    Видео «New York Minute (Eagles)»

    Видео клипы к песне подбираются автоматически сайтом youtube. Возможны некоторые несоответствия клипов песне.

    ↑ Спрятать рекламу ↑



    Download


    (0:39)
    G---------15-----------------------------------------------------
    D--15/17------17~---15P13-12-13-15-------------------------------
    A-----------------------------------13/15------8H9P8P6-----------
    E-------------------------------------------------------8---8---
    
    (vocals enter)(0:54)
    -----------------------------8-7---------------------------------8-----
    ------86------------------------10~--------------------------10----10-
    -------------------------10--------------------------------/10---------
    4---6------4---6/8--6------------------8--3-3-4--5-5-7--8--------------
    
    (1:24)
    ---------------12tr13-----------------------8-7------------------
    ------6--------------13------------8/10----------10-8P0-5--------
    ----6------------------11----------------------------------------
    4-------6/8-6--------------6/8-6--------8------------------4--5--
    
    -------------15-17-15-------------
    -------15/17----------17-15-------
    ----------------------------15----
    7--8------------------------------
    
    
    Chorus(1:53)
    G----------------------------------------------------------------
    D------------------------------6---------------------------------
    A----------------------------6-----------------------------------
    E-3-3-4---4-6-8----3-4/6-4-------4-6-8---3-3-4--4-6-8----3-4/6-4-
    
    -----------------
    --6--------------
    6----------------
    ----4-6-4-6-8----
    
    
    2nd Verse (2:22)
    G----8P7~----7--5~----------7H8P7-5-0------------------
    D--------------------------------------5----------------
    A----------5-----------------------------3~-------------
    E-4-------------------6/8-6--------------------3-4-5-7-8
    
    ----------------------
    17P15P14-15/17-13-----
    -------------------15-
    ----------------------
    
    
    2nd Chorus(2:51)
    G----------------------------------------------------------------
    D------------------------------6---------------------------------
    A----------------------------6-----------------------------------
    E-3-3-4---4-6-8----3-4/6-4-------4-6-8---3-3-4--4-6-8----3-4/6-4-
    
    -----------
    --6--------
    6----------
    ----4-6-4-6
    
    
    Bridge(3:21) Starts with a Drum fill at the end of the chorus.
    It's hard to follow but it's all there.
    
    G---------------------------------------------7H8P7-5-0----
    D-----6-5-3-------5-------------------6-5-3-------------3-5
    A-----------5-3------5-6-3---0-3---------------------------
    E-1-------------3----------------3-1-----------------------
    
    ---------------------------------------------------------
    ---------------------------------------------------------
    --3-----------3--1----8-7-5--3-0--------3~---------------
    3-----3--1--3------4--------------3----------------------
    
    (3:52)
    -12-15-------------------------------7-8------10-8-------
    -------12-15-------5-------------------------------------
    -------------15~-----8-7----------10-------10------------
    -------------------------8~-----8--------8---------------
    
    --------7-8-------10-8-------------
    -----------------------------------
    -----10-------10-------------------
    ---8--------8-------------8-------
    
    (4:15) 3rd Verse
    G-------------------7H8P7------------------------------------------
    D--------------------------8------10----10-------------------------
    A----------------------------8/10----------10----------------------
    E--4--6--4---6/8-6----------------------------8---3--4--5--7--8-6-8
    
    ------3/5-----------------------------8-7------------------
    --------------6/8-----86-----------------8------10-10-----
    3-5-6---------------------------------------8/10-------10--
    -----------4------6--6-----4---6/8-6----------------------8
    
    --------------------15-17-15-------------
    --------------15/17-----------17-15------
    ------------------------------------15---
    ---3-4-5-7-8-----------------------------
    
    (5:12)Last Chorus
    G----------------------------------------------------------------
    D------------------------------6---------------------------------
    A----------------------------6-----------------------------------
    E-3-3-4---4-6-8----3-4/6-4-------4-6-8---3-3-4--4-6-8----3-4/6-4-
    
    -----------
    --6-------- (play till the end)
    6----------
    ----4-6-4-6
    

    Тональность:

    Нет текста!



    Назад
    Рекомендуем посмотреть другие песни исполнителя «Eagles»:

    • Комментарии Facebook ()
    • Комментарии ВКонтакте



    Добавить в Избранное Браузера
    Сохранить здесь Очистить


    x

    0


    +
    -

    +
    -

    -

    Авторизация





    Зарегистрироваться

    M

    Дата и время

    • 12:46:30
       

    Социальные ссылки


    Наши приложения

    • Muzbank App Play Market
    • Muzbank Amazon App