MUZBANK



A Most Complete Bank Of Music Information

МУЗЫКАЛЬНО-ИНФОРМАЦИОННЫЙ БАНК

Поиск по сайту







    EEagles • Out Of Control (аккорды и текст - chords & lyrics)


    320

    Print

    Видео «Out Of Control (Eagles)»

    Видео клипы к песне подбираются автоматически сайтом youtube. Возможны некоторые несоответствия клипов песне.

    ↑ Спрятать рекламу ↑



    Download


     
    
    
    TITLE: Out of Control   by Eagles (Desperado)
    TABBED by hawkhuff
    
    For Jake Lengen.
    
    Intro: 
    G----------|
    D----------|
    A----------|
    E--5-1-3-5-|
    
       Verse:4X     2X        1X then
    G-----------|---------|------4-----------|
    D-----------|------4--|--4477-7--47-474--|
    A--------4--|--4477-7-|-5-------5--5---5-|
    E--0-4477-7-|-5-------|------------------|
    
         4X         1X        1X  then back to verse.
    G-----------|---------|------4-------------------|
    D-----------|------4--|--4477-7------------------|
    A--------4--|--4477-7-|-5------7-S7---------4567-|
    E--0-4477-7-|-5-------|------------555555555-----|
    
      Lead part is same as the verse.
    
      Bridge right after lead parts:
    
    G---------------------------------------------|
    D---------------------------------------------|
    A--55555555------------------------7777777777-|
    E----------55555555-77777777777---------------|
    
    
      Back to verse.
    
    
    questions:   hawkhuff@msn.com
     

    Тональность:

    Нет текста!



    Назад
    Рекомендуем посмотреть другие песни исполнителя «Eagles»:

    • Комментарии Facebook ()
    • Комментарии ВКонтакте



    Добавить в Избранное Браузера
    Сохранить здесь Очистить


    x

    0


    +
    -

    +
    -

    -

    Авторизация





    Зарегистрироваться

    M

    Дата и время

    • 01:02:45
       

    Социальные ссылки


    Наши приложения

    • Muzbank App Play Market
    • Muzbank Amazon App