MUZBANK



A Most Complete Bank Of Music Information

МУЗЫКАЛЬНО-ИНФОРМАЦИОННЫЙ БАНК

Поиск по сайту







    EEarly November • Come Back Acoustic (аккорды и текст - chords & lyrics)


    235

    Print

    Видео «Come Back Acoustic (Early November)»

    Видео клипы к песне подбираются автоматически сайтом youtube. Возможны некоторые несоответствия клипов песне.

    ↑ Спрятать рекламу ↑



    Download


     
    
    
    yet another great song by the early november, its off the acoustic ep and is standard
    tuning except the thickest E string is tuned to D like most of their acoustics.
    
    INTRO:
    e-----------------|-------------|--------------------------------------|
    B-----------------|-------------|--------------------------------------|
    G-----0-------0---|----0-----0--|-----0-------0-------0-------0----0---|
    D---4---4----4--4-|--4--4--4--4-|---4---4---4---4---4---4---4---4--4---|
    A--5-------5------|-0-----0-----|--------------------------------------|
    D-----------------|-------------|-5-------5-------5-------5--------5---|
    
    VERSE:
    e-------------------|-----------------|----------------------------------|
    B-------------------|-----------------|----------------------------------|
    G------0--------0---|-----0-------0---|-----0-------0-------0-------0----|
    D----4---4----4---4-|---4---4---4---4-|---4---4---4---4---4---4---4---4--|
    A--5--------5-------|-0-------0-------|----------------------------------|
    D-------------------|-----------------|-5-------5-------5-------5--------|
    
    CHORUS:
    e------|--------|------------|
    B------|--------|------------|
    G--77--|--7777--|--77777777--|
    D--77--|--7777--|--77777777--|
    A--55--|--7777--|--55555555--|
    D------|--------|--55555555--|
    
    OUTRO:
    e------|------|----------|
    B------|------|----------|
    G--77--|--77--|--777777--|
    D--77--|--77--|--777777--|
    A--55--|--xx--|--xxxxxx--|
    D------|--77--|--555555--|
    
    its and up and down strumming rythem for the chorus and outro.
    
    thanks email me at LotusLunchbox@yahoo.com
     

    Тональность:

    Нет текста!



    Назад
    Рекомендуем посмотреть другие песни исполнителя «Early November»:

    • Комментарии Facebook ()
    • Комментарии ВКонтакте



    Добавить в Избранное Браузера
    Сохранить здесь Очистить


    x

    0


    +
    -

    +
    -

    -

    Авторизация





    Зарегистрироваться

    M

    Дата и время

    • 22:50:37
       

    Социальные ссылки


    Наши приложения

    • Muzbank App Play Market
    • Muzbank Amazon App