MUZBANK



A Most Complete Bank Of Music Information

МУЗЫКАЛЬНО-ИНФОРМАЦИОННЫЙ БАНК








    EEarshot • Wait (аккорды и текст - chords & lyrics)


    320

    Print

    Видео «Wait (Earshot)»

    Видео клипы к песне подбираются автоматически сайтом youtube. Возможны некоторые несоответствия клипов песне.

    ↑ Спрятать рекламу ↑






     
    
    
    Tuning Dadgbe
    
    (intro)
    e------------------|
    b------------------|
    g------------------|
    d-1p0-0-0-1p0-0-0--|  12X
    a-1p0-0-0-1p0-0-0--|
    d-1p0-0-0-1p0-0-0--|
    
    The verse is just the intro palm muted
    
    (chorus)
    
    e--------------------------|
    b--------------------------|
    g--------------------------|
    d-2-2-2-2-2-2-5-5-5-5-5-5--|
    a-0-0-0-0-0-0-3-3-3-3-3-3--|
    d-0-0-0-0-0-0-3-3-3-3-3-3--|
    
    d-10-10-10-10-10-10-|
    a-8--8--8--8--8--8--|
    d-8--8--8--8--8--8--|
    
    you play the intro for the outro and palm mute open at the end
    
    thats pretty much it
     

    Тональность:

    Нет текста!



    Назад
    Рекомендуем посмотреть другие песни исполнителя «Earshot»:

    • Комменты Fb ()
    • Комменты ВК



    Добавить в Избранное Браузера
    Сохранить здесь Очистить


    x

    0


    +
    -

    +
    -

    -

    Авторизация





    Зарегистрироваться

    M

    Дата и время

    • 11:56:44
       

    Социальные ссылки


    Наши приложения

    • Muzbank App Play Market
    • Muzbank Amazon App