MUZBANK



A Most Complete Bank Of Music Information

МУЗЫКАЛЬНО-ИНФОРМАЦИОННЫЙ БАНК

Поиск по сайту







    EEarthtone 9 • Inertia 648 (аккорды и текст - chords & lyrics)


    222

    Print

    Видео «Inertia 648 (Earthtone 9)»

    Видео клипы к песне подбираются автоматически сайтом youtube. Возможны некоторые несоответствия клипов песне.

    ↑ Спрятать рекламу ↑



    Download


    
    
    author/artist: earthtone9
    title: inertia 64800
    album: off kilter enhancement
    
    -|----------------------------------------------------------------------------|
    -|----------------------------------------------------------------------------|
    -|----------------------------------------------------------------------------|
    -|----12-----12-----14-----14-----14-12-----12-----12-----14-----15-----15-14-|
    -|0-0----0-0----0-0----0-0----0-0-------0-0----0-0----0-0----0-0----0-0-------|
    -|----------------------------------------------------------------------------|
     gtr 1 - intro (clean)
    -|----------------------------------------|-----------------------------------|
    -|----------------------------------------|-----------------------------------|
    -|----------------------------------------|-----------------------------------|
    -|-7--9-----------------------------------|-7--9--10--------------------------|
    -|-8--8-----------------------------------|-8--8--8---------------------------|
    -|----------------------------------------|-----------------------------------|
     gtr 1

    Тональность:

    Нет текста!



    Назад
    Рекомендуем посмотреть другие песни исполнителя «Earthtone 9»:

    • Комментарии Facebook ()
    • Комментарии ВКонтакте



    Добавить в Избранное Браузера
    Сохранить здесь Очистить


    x

    0


    +
    -

    +
    -

    -

    Авторизация





    Зарегистрироваться

    M

    Дата и время

    • 00:24:34
       

    Социальные ссылки


    Наши приложения

    • Muzbank App Play Market
    • Muzbank Amazon App