MUZBANK



A Most Complete Bank Of Music Information

МУЗЫКАЛЬНО-ИНФОРМАЦИОННЫЙ БАНК

Поиск по сайту







    EEbba Gron • 800 Grader (аккорды и текст - chords & lyrics)


    255

    Print

    Видео «800 Grader (Ebba Gron)»

    Видео клипы к песне подбираются автоматически сайтом youtube. Возможны некоторые несоответствия клипов песне.

    ↑ Спрятать рекламу ↑



    Download



     
    
    
    Artist: Ebba Grцn
    Song: 800 grader
    Tabbed by: Adam Widing
    Please correct me if the tabis wrong
    Kaffe_Drick@hotmail.com
    
    Intro: 4x
    
    e|------------------|
    b|------------------|
    g|------------------|
    d|--------79-11-79--|
    a|--77-79-79-9--79--|
    E|--55-79-----------|
    
    Verse: 4x
    
    e|------------------|
    b|------------------|
    g|------------------|
    d|--------79-11-79--|
    a|--77-79-79-9--79--|
    E|--55-79-----------|
    
    Pre Chours: 2x
    e|-------------------|
    b|-------------------|
    g|-------------------|
    d|-------9---7-------|
    a|--7----7---5----7--|
    E|--5-------------5--|
    
    Chours: 2x
    e|------------------------------------------|
    b|------------------------------------------|
    g|------------------------------------------|
    d|----------------------44444444------------|
    a|--44444444--22222222--22222222--44444444--|
    E|--22222222--00000000------------22222222--|
     

    Тональность:

    Нет текста!



    Назад
    Рекомендуем посмотреть другие песни исполнителя «Ebba Gron»:

    • Комментарии Facebook ()
    • Комментарии ВКонтакте



    Добавить в Избранное Браузера
    Сохранить здесь Очистить


    x

    0


    +
    -

    +
    -

    -

    Авторизация





    Зарегистрироваться

    M

    Дата и время

    • 21:29:48
       

    Социальные ссылки


    Наши приложения

    • Muzbank App Play Market
    • Muzbank Amazon App