MUZBANK



A Most Complete Bank Of Music Information

МУЗЫКАЛЬНО-ИНФОРМАЦИОННЫЙ БАНК

Поиск по сайту







    EEdguy • Vainglory Opera (аккорды и текст - chords & lyrics)


    247

    Print

    Видео «Vainglory Opera (Edguy)»

    Видео клипы к песне подбираются автоматически сайтом youtube. Возможны некоторые несоответствия клипов песне.

    ↑ Спрятать рекламу ↑



    Download


     
    
    
    VAIN GLORY OPERA
    
    FROM VAIN GLORY OPERA ALBUM BY EDGUY
    TABBED BY ANDREAS ЦНRN
    
    KEYBOARD INTRO    X  4
    
    E|---------------------8------------------------------------8---------------
    ------|
    B|--8--10--11--10--11-----11--10--8------8--10--11--10--11-----11--10--8--10
    ------|
    G|-----------------------------------10-------------------------------------
    --10--|
    D|--------------------------------------------------------------------------
    ------|
    A|--------------------------------------------------------------------------
    ------|
    E|--------------------------------------------------------------------------
    ------|
    
    E|-----------------------------------10--11--8----------|
    B|--8--10------8--10--11--10--8-----------------11--10--|
    G|---------10--------------------10---------------------|
    D|------------------------------------------------------|
    A|------------------------------------------------------|
    E|------------------------------------------------------|
    
    GUITARS COME IN ON THIRD TIME
    
    E|---------------------------------------|
    B|---------------------------------------|
    G|--------------8--------------3---------|
    D|------5-------8-------3------3------3--|
    A|------5-------6-------3------1------3--|
    E|------3---------------1-------------1--|
         P.M............
    
    VERSE: X 2  SAME AS INTRO
    
    BRIDGE:
    
    E|----------------|
    B|----------------|
    G|------5---------|
    D|------5------5--|
    A|------3------5--|
    E|-------------3--|
         P.M.......
    
    SHORT RIFF:
    
    E|-------------------------------------------------------------|
    B|-------------------------------------------------------------|
    G|-------------------------------------------------------------|
    D|----5-----------3-----------5-----------6-----------5--3--5--|
    A|----3--3--3--3--3--3--3--3--3--3--3--3--3--3--3--3--3--3--3--|
    E|-------------------------------------------------------------|
             | P.M..|    | P.M..|    | P.M..|    | P.M..|
    
    E|---------------|
    B|---------------|
    G|--------3------|
    D|---6----3------|
    A|---6----1------|
    E|---4-----------|
    
    CHORUS:   X 2
    
    E|--------------------------------------------------------------------|
    B|--------------------------------------------------------------------|
    G|----5-----------3------------3-----5-----------3-----------3----5---|
    D|----5-----3-----3------6-----3-----5-----6-----3-----6-----3----5---|
    A|----3-----3-----1------6-----1-----3-----6-----1-----6-----1----3---|
    E|----------1------------4-----------------4-----------4--------------|
    
    SHORT RIFF:  X 2
    
    E|------------------------------------------------------------|
    B|------------------------------------------------------------|
    G|------------------------------------------------------------|
    D|---5-----------3-----------5-----------6-----------5--3--5--|
    A|---3--3--3--3--3--3--3--3--3--3--3--3--3--3--3--3--3--3--3--|
    E|------------------------------------------------------------|
    
    VERSE:  X 2     SAME AS ABOVE
    
    BRIDGE:         AS ABOVE
    
    RIFF: X 2       AS ABOVE
    
    CHORUS:         AS ABOVE
    
    INTRO AGAIN:  X 2
    
    KEYBOARD:
    E|----------------------13--------------------------------------13----------
    --------|
    B|--13--15--16--15--16------16--15--13------13--15--16--15--16------16--15--
    13--15--|
    G|--------------------------------------15----------------------------------
    --------|
    D|--------------------------------------------------------------------------
    --------|
    A|--------------------------------------------------------------------------
    --------|
    E|--------------------------------------------------------------------------
    --------|
    
    E|------------------------------------------15--16--13----------|
    B|------13--15------13--15--16--15--13------------------16--15--|
    G|--15----------15----------------------15----------------------|
    D|--------------------------------------------------------------|
    A|--------------------------------------------------------------|
    E|--------------------------------------------------------------|
    
    GUITAR FOR KEYBOARD:
    E|------------------------------------|
    B|------------------------------------|
    G|----5--------------------8----------|
    D|----5------6------8------8------8---|
    A|----3------6------8------6------8---|
    E|-----------4------6-------------6---|
    
    SOLO GUITAR:
    TAPPING
    
    E|---h11p15-8h11p15-8h11p15-8h11p15-8h11p15-8h11p15-8h11p15-8h11p15-8h11p15-
    8h11p15--|
    B---------------------------------------------------------------------------
    ---------|
    G|--------------------------------------------------------------------------
    ---------|
    D|--------------------------------------------------------------------------
    ---------|
    A|--------------------------------------------------------------------------
    ---------|
    E|--------------------------------------------------------------------------
    ---------|
    
    E|--8h11p15-8h11p15-8h11p15-8h11p15-8h11p15-8h11p15-8h11p16-8h11p16-8h11p16-
    8h11p16--|
    B|--------------------------------------------------------------------------
    ---------|
    G|--------------------------------------------------------------------------
    ---------|
    D|--------------------------------------------------------------------------
    ---------|
    A|--------------------------------------------------------------------------
    ---------|
    E|--------------------------------------------------------------------------
    ---------|
    
    E|--8h11p16-8h11p16-8h11p16-8h11p16-8h11p16-8h11p16-8h11p16-8h11p16-8h11h16-
    8h11p16--|
    B|--------------------------------------------------------------------------
    ---------|
    G|--------------------------------------------------------------------------
    ---------|
    D|--------------------------------------------------------------------------
    ---------|
    A|--------------------------------------------------------------------------
    ---------|
    E|--------------------------------------------------------------------------
    ---------|
    
    E|--8h11p16-8h11p16-10h13p18-10h13p18-10h13p18-10h13p18-10h13p18-10h13p18-10
    h13p18---|
    B|--------------------------------------------------------------------------
    ---------|
    G|--------------------------------------------------------------------------
    ---------|
    D|--------------------------------------------------------------------------
    ---------|
    A|--------------------------------------------------------------------------
    ---------|
    E|--------------------------------------------------------------------------
    ---------|
    
    E|--10h13p16-10h13p18-10h13p18-10h13p18-10h13p18-10h13p18-10h13p18-10h13p18-
    10h13p18-|
    B|--------------------------------------------------------------------------
    ---------|
    G|--------------------------------------------------------------------------
    ---------|
    D|--------------------------------------------------------------------------
    ---------|
    A|--------------------------------------------------------------------------
    ---------|
    E|--------------------------------------------------------------------------
    ---------|
    
    E|--15-15^-13---|
    B|--------------|
    G|--------------|
    D|--------------|
    A|--------------|
    E|--------------|
    
    SOLO KEYBORD:
    E|--------------------------------------------------------------------------
    --------|
    B|--15/16--15------15/16--15----------15/16--15----------------------15/16--
    15------|
    G|---------------------------------------------------15--17--17--17---------
    --------|
    D|-------------17-------------17--17-------------17-------------------------
    ----15--|
    A|--------------------------------------------------------------------------
    --------|
    E|--------------------------------------------------------------------------
    --------|
    
    E|--------------------------------------------|
    B|--15/16--15------15/16--18--20--18--16--15--|
    G|--------------------------------------------|
    D|-------------15-----------------------------|
    A|--------------------------------------------|
    E|--------------------------------------------|
    
    BRIDGE:           SAME AS ABOVE
    
    RIFF:             AS ABOVE
    
    CHORUS: X 6       AS ABOVE
    
    
    NOTES:
    
    /  SLIDE
    ^  BEND
    h  HAMMER ON
    p  PULL OF
     

    Тональность:

    Нет текста!



    Назад
    Рекомендуем посмотреть другие песни исполнителя «Edguy»:

    • Комментарии Facebook ()
    • Комментарии ВКонтакте



    Добавить в Избранное Браузера
    Сохранить здесь Очистить


    x

    0


    +
    -

    +
    -

    -

    Авторизация





    Зарегистрироваться

    M

    Дата и время

    • 18:41:33
       

    Социальные ссылки


    Наши приложения

    • Muzbank App Play Market
    • Muzbank Amazon App