MUZBANK



A Most Complete Bank Of Music Information

МУЗЫКАЛЬНО-ИНФОРМАЦИОННЫЙ БАНК

Поиск по сайту







    EEighties Matchbox B-line Disaster • Chicken (аккорды и текст - chords & lyrics)


    270

    Print

    Видео «Chicken (Eighties Matchbox B-line Disaster)»

    Видео клипы к песне подбираются автоматически сайтом youtube. Возможны некоторые несоответствия клипов песне.

    ↑ Спрятать рекламу ↑



    Download



     
    
    
    this song is like all bass so it rocks!
    
    intro
    
    G|-------------------------------------|
    D|-------------------------------------|
    A|------2~~-----------2~~-------2~~----|
    E|-0-0-3--------0-0-3------0-0-3-------|
    
    verses(main riff)
    
    G|---------------------------|
    D|---------------------------| times loads
    A|------2-2-2p0------1-1-1p0-|
    E|-0-0-3--------0-0-3--------|
    
    G|-----------------|
    D|-----------------| bridge
    A|-----------------|
    E|-3-3-3-3-2-2-1-1-|
    
    back to main riff then bridge
    
    chorous 1
    
    G|---------------------------------|-----------------|-----------------------
    D|---------------------------------|-times-loads-----|---times2--------------
    A|---------------------------------|-----------------|-----------------------
    E|-0-0-3-0-6-6-6-6-0-0-3-0-6-6-6-6-|-3-0-3-3-6-6-6-6-|-0-0-0-0-0-0-0-0/6-6-6-
    
    G|-----------|
    D|-----------|
    A|-----------|
    E|-6-6-6-6-6-|
    
    bridge
    
    main riff
    
    bridge
    
    main riff
    
    the second chorous is just the last 2 bars
    
    bridge
    
    wierd verse
    
    G|--------------------|
    D|----times-about-6---|
    A|--------------------|
    E|-0-0-3p0-0-0-3-p0-0-|
    
    3rd chorous is first bar of 1st chorous
    i also done it for lead
     

    Тональность:

    Нет текста!



    Назад
    Рекомендуем посмотреть другие песни исполнителя «Eighties Matchbox B-line Disaster»:

    • Комментарии Facebook ()
    • Комментарии ВКонтакте



    Добавить в Избранное Браузера
    Сохранить здесь Очистить


    x

    0


    +
    -

    +
    -

    -

    Авторизация





    Зарегистрироваться

    M

    Дата и время

    • 01:27:25
       

    Социальные ссылки


    Наши приложения

    • Muzbank App Play Market
    • Muzbank Amazon App