MUZBANK



A Most Complete Bank Of Music Information

МУЗЫКАЛЬНО-ИНФОРМАЦИОННЫЙ БАНК

Поиск по сайту







    EEighties Matchbox B-line Disaster • Psychosis Safa (аккорды и текст - chords & lyrics)


    197

    Print

    Видео «Psychosis Safa (Eighties Matchbox B-line Disaster)»

    Видео клипы к песне подбираются автоматически сайтом youtube. Возможны некоторые несоответствия клипов песне.

    ↑ Спрятать рекламу ↑



    Download



     
    
    
    this is done personally by Andy (the guitarist in EMBLD) so its 100% right
    
    INTRO
    e------------------
    B------------------
    G------------------
    D------------------
    A-0-0-3-0-0-0-3-0--etc
    E------------------
    
       MAIN RIFF  (drink all night)
    e------------------------------------------
    B------------------------------------------
    G------------------------------------------
    D------------------------------------------
    A-0-0-3-0-0-0-3-0--------------------------
    E-----------------------0-0-3-0-0-6-6-6----
                                       slide up
    
       CHORUS   (heart in my mouth)
    e-----------------------------------------------------------------
    B-----------------------------------------------------------------
    G-9-9-9-9-9-9-9-9-5-5-5-5-8-8-8-8---------------------------------
    D-9-9-9-9-9-9-9-9-5-5-5-5-8-8-8-8-5-5-5-5-5-5-5-5-7-7-7-7-8-8-8-8-
    A-7-7-7-7-7-7-7-7-3-3-3-3-6-6-6-6-5-5-5-5-5-5-5-5-7-7-7-7-8-8-8-8-
    E---------------------------------3-3-3-3-3-3-3-3-5-5-5-5-6-6-6-6-
    
       AFTER CHORUS RIFF (Gtr 1)
    e----------------------------------------------------------------------
    B----------------------------------------------------------------------
    G----------------------------------------------------------------------
    D----------------------------------------------------------------------
    A-7-7-10-7-7-7-10-7-7-7-10-7-7-7-10-7-3-3-6-3-3-3-6-3-3-3-6-3-3-3-6-3--
    E----------------------------------------------------------------------
    
       AFTER CHORUS RIFF (Gtr 2)
    e------------7------------7-----------3------------3-----
    B-----------8------------8-----------4------------4------
    G----------9------------9-----------5------------5-------
    D---------9------------9-----------5------------5--------
    A--------------------------------------------------------
    E-0---0--------0---0---------0---0---------0---0---------Deaden this string
    
    email me at jordison800@hotmail.com then ill get your requests then ill get them for you
     

    Тональность:

    Нет текста!



    Назад
    Рекомендуем посмотреть другие песни исполнителя «Eighties Matchbox B-line Disaster»:

    • Комментарии Facebook ()
    • Комментарии ВКонтакте



    Добавить в Избранное Браузера
    Сохранить здесь Очистить


    x

    0


    +
    -

    +
    -

    -

    Авторизация





    Зарегистрироваться

    M

    Дата и время

    • 05:29:20
       

    Социальные ссылки


    Наши приложения

    • Muzbank App Play Market
    • Muzbank Amazon App