MUZBANK



A Most Complete Bank Of Music Information

МУЗЫКАЛЬНО-ИНФОРМАЦИОННЫЙ БАНК

Поиск по сайту







    EEighties Matchbox B-line Disaster • Turkish Deligh (аккорды и текст - chords & lyrics)


    336

    Print

    Видео «Turkish Deligh (Eighties Matchbox B-line Disaster)»

    Видео клипы к песне подбираются автоматически сайтом youtube. Возможны некоторые несоответствия клипов песне.

    ↑ Спрятать рекламу ↑



    Download


     
    
    
    intro:
    
    aftter drums: both guitars
    
    |----------------------------------------------|
    |----------------------------------------------|
    |----------------------------------------------| times 6
    |-5-5-5-5-888888-5-5-5-5-222222-5-5-5-5-222222-|
    |-5-5-5-5-888888-5-5-5-5-222222-5-5-5-5-222222-|
    |-3-3-3-3-666666-3-3-3-3-000000-3-3-3-3-000000-|
    
    bridge: both guitars
    
    |--------|
    |--------|
    |--------|
    |9-9-9-9-|
    |9-9-9-9-|
    |7-7-7-7-|
    
    verse: guitar 2 play as much as needed
    
    |-----------------|
    |-----------------|
    |-----------------|
    |-5-5-4-4-2-2-5-2-|
    |-5-5-4-4-2-2-5-2-|
    |-3-3-2-2-0-0-3-0-|
    
    verse: guitar 1 play as much as needed
    
    |-----------------|
    |-8-8-7-7-5-5-8-5-|
    |-10109-9-7-7-107-|bend this string on rythm
    |-----------------|
    |-----------------|
    |-----------------|
    
    dont listen to me! bit (from now im im going to reffer to this as the chorous)
    
    guitar 1:
    
    |--------------------|
    |-3-3-3-3---3-555----|
    |-3-2-3-3-3-3-555----|
    |---------2----------|
    |--------------------|
    |--------------------|
    
    guitar 2:
    
    |-------------------|
    |-------------------|
    |-3-2-3-3-3-555-----|
    |--------2------222-|
    |-------------------|
    |-------------------|
    
    bridge 2: both guitars
    
    |-------------------|
    |-------------------|
    |-------------------|
    |-2-3-4-5-5-5-5-8-2-|
    |-2-3-4-5-5-5-5-8-2-|
    |-0-1-2-3-3-3-3-6-0-|
    
    verse
    
    solo: guitar 2 plays verse in background
    
    |-------------------------------------------------------------|
    |-------------------------------------------------------------|
    |--------------------------------------9-99999-------9-999999-|
    |-5-5-4-4-2-2-5-1-5-5-/8-5-5-2-5-5-5-/8--------5-5-/8---------|
    |-------------------------------------------------------------|
    |-------------------------------------------------------------|
    
    chorous
    
    bridge 2
    
    verse
    
    some mental bit that i can no way figure out
    
    verse
     

    Тональность:

    Нет текста!



    Назад
    Рекомендуем посмотреть другие песни исполнителя «Eighties Matchbox B-line Disaster»:

    • Комментарии Facebook ()
    • Комментарии ВКонтакте



    Добавить в Избранное Браузера
    Сохранить здесь Очистить


    x

    0


    +
    -

    +
    -

    -

    Авторизация





    Зарегистрироваться

    M

    Дата и время

    • 23:12:19
       

    Социальные ссылки


    Наши приложения

    • Muzbank App Play Market
    • Muzbank Amazon App