MUZBANK



A Most Complete Bank Of Music Information

МУЗЫКАЛЬНО-ИНФОРМАЦИОННЫЙ БАНК

Поиск по сайту







    EEighties Matchbox B-line Disaster • Whack Of Shit (аккорды и текст - chords & lyrics)


    221

    Print

    Видео «Whack Of Shit (Eighties Matchbox B-line Disaster)»

    Видео клипы к песне подбираются автоматически сайтом youtube. Возможны некоторые несоответствия клипов песне.

    ↑ Спрятать рекламу ↑



    Download


     
    
    
    main riff/verse
    
    e|---------------|
    B|---------------|
    G|---------------|
    D|---------------|
    A|---------------|
    E|3p0-00-3p0-5p0-|
    
    chorous: please make up your own rythms its to hard to tab.
    
    |--------------|------------|----------------|
    |--times 2-----|------------|----------------|
    |--------------|------------|1st bar times 1-|
    |-105-10-105-2-|-5--------7-|----------------|
    |-105-10-105-2-|-5--------7-|----------------|
    |-7-3-7--7-3-0-|-3--------5-|----------------|
    
    verse
    
    chorous
    
    verse+lead bit
    
    |-------------------------------------------------------|
    |-------------------------------------------------------|
    |-------------TIMES TWO---------------------------------|
    |-------------------------------------------------------|
    |-7-/10-7-/10-7-/10-7-/10-7--6-/9-6-/9-6-/9-6-/9-6-9-p7-|
    |--------------------------7----------------------------|
    
    GUITAR 2 GOES LIKE THIS: * = same note D= down stroke U= up stroke
     D UDUDU D UDUDU-D-UDUDU-D-UDUDU
    |--------------------------------|
    |--------------------------------|
    |--------------------------------|
    |2-22222-2-22222-10*****-10*****-|
    |2-22222-2-22222-10*****-10*****-|
    |0-00000-0-00000-7-77777-7-77777-|
    i think thats palm muted but im not sure
    thats all the way through that lead bit
    
    chorous: but this time it has a change in it:
    
    |--------------|------------|-----------------|
    |--times 2-----|------------|-----------------|
    |--------------|------------|-----------------|
    |-105-10-105-2-|-5--------7-|-14-1014-1410-14-|
    |-105-10-105-2-|-5--------7-|-14-1014-1410-14-|
    |-7-3-7--7-3-0-|-3--------5-|-12-7-12-12-7-12-|
    
    chorous to the end
       
    m/>
     

    Тональность:

    Нет текста!



    Назад
    Рекомендуем посмотреть другие песни исполнителя «Eighties Matchbox B-line Disaster»:

    • Комментарии Facebook ()
    • Комментарии ВКонтакте



    Добавить в Избранное Браузера
    Сохранить здесь Очистить


    x

    0


    +
    -

    +
    -

    -

    Авторизация





    Зарегистрироваться

    M

    Дата и время

    • 11:36:47
       

    Социальные ссылки


    Наши приложения

    • Muzbank App Play Market
    • Muzbank Amazon App