MUZBANK



A Most Complete Bank Of Music Information

МУЗЫКАЛЬНО-ИНФОРМАЦИОННЫЙ БАНК

Поиск по сайту







    EEl Dorado • Advice (аккорды и текст - chords & lyrics)


    205

    Print

    Видео «Advice (El Dorado)»

    Видео клипы к песне подбираются автоматически сайтом youtube. Возможны некоторые несоответствия клипов песне.

    ↑ Спрятать рекламу ↑



    Download



     
    
    
    band:EL dorado
    song:advice
    
    intro:clean for 2X then dist.for4X
    E-------------------------------
    B-------------------------------
    G8-8-8-8------------------------
    D8-8-8-8-8-8-8-8-8-8-8-8-8-8-8-8
    A6-------8-8-8-8-8-8-8-8-8-8-8-8
    E--------6-------8-------6------
    
    riff#1 4X
    E------------------------------------------
    B------------------------------------------
    G8~~~~~~~-8-0-8-0--------------------------
    D8~~~~~~~---------8-0-8-0-10-0-10-0-8-0-8-0
    A6~~~~~~~----------------------------------
    E------------------------------------------
    
    chorus#1 4X
    E-----------------------------------
    B-----------------------------------
    G8-8-8-8----------------------------
    D8-8-8-8-8-8-8-8-10-10-10-10-6-6-6-6
    A6-6-6-6-8-8-8-8-10-10-10-10-6-6-6-6
    E--------6-6-6-6--8--8--8--8-4-4-4-4
    
    riff#2
    same
    
    chorus#2 8X
    
    bridge 8X
    same as chorus just palm muted
    
    chorus#3 8X
    
    
    daniel
    skate25958@aol.com
     

    Тональность:

    Нет текста!



    Назад
    Рекомендуем посмотреть другие песни исполнителя «El Dorado»:

    • Комментарии Facebook ()
    • Комментарии ВКонтакте



    Добавить в Избранное Браузера
    Сохранить здесь Очистить


    x

    0


    +
    -

    +
    -

    -

    Авторизация





    Зарегистрироваться

    M

    Дата и время

    • 03:28:49
       

    Социальные ссылки


    Наши приложения

    • Muzbank App Play Market
    • Muzbank Amazon App