MUZBANK



A Most Complete Bank Of Music Information

МУЗЫКАЛЬНО-ИНФОРМАЦИОННЫЙ БАНК

Поиск по сайту







    EEl Dorado • Jazz Song (аккорды и текст - chords & lyrics)


    159

    Print

    Видео «Jazz Song (El Dorado)»

    Видео клипы к песне подбираются автоматически сайтом youtube. Возможны некоторые несоответствия клипов песне.

    ↑ Спрятать рекламу ↑



    Download



     
    
    
    BAND: EL dorado
    song: Jazz Song
    
    
    intro
    iffs: guitar 2X by self
    E------------------------------------------------
    B------------------------------------------------
    G---------------------------0-2-3-2-0---0-2-3-2-0
    D--0-2-3-2-0---0-2-3-2-0---2---------2-2---------
    A-2---------2-2---------2-3----------------------
    E3-----------3-----------------------------------
    
    chorus 4X
    E-------------
    B-------------
    G----4-4-5-5-7
    D5-5-4-4-5-5-7
    A5-5-2-2-3-3-5
    E3-3----------
    
    Riff#2
    same
    
    chorus #2
    same
    
    ending
    E---
    B---
    G5~-
    D5~5
    A3~5
    E--3daniel
    skate259582@aol.com
     

    Тональность:

    Нет текста!



    Назад
    Рекомендуем посмотреть другие песни исполнителя «El Dorado»:

    • Комментарии Facebook ()
    • Комментарии ВКонтакте



    Добавить в Избранное Браузера
    Сохранить здесь Очистить


    x

    0


    +
    -

    +
    -

    -

    Авторизация





    Зарегистрироваться

    M

    Дата и время

    • 15:03:45
       

    Социальные ссылки


    Наши приложения

    • Muzbank App Play Market
    • Muzbank Amazon App