MUZBANK



A Most Complete Bank Of Music Information

МУЗЫКАЛЬНО-ИНФОРМАЦИОННЫЙ БАНК

Поиск по сайту







    EElectric 6 • Getting Into The Jam (аккорды и текст - chords & lyrics)


    230

    Print

    Видео «Getting Into The Jam (Electric 6)»

    Видео клипы к песне подбираются автоматически сайтом youtube. Возможны некоторые несоответствия клипов песне.

    ↑ Спрятать рекламу ↑



    Download



     
    
    
    Electric Six - Getting Into The Jam
    
    the song starts with some breathing then the band come in
    this is played 4 times
    0:06 - 0:14
    e----------------------------
    b----------------------------
    g----------------------------
    d-9-9-9-9-9--2-2-2-2---------
    a-9-9-9-9-9--2-2-2-2---------
    e-7-7-7-7-7--0-0-0-0---------
    
    then this is played 8 times
    0:14 - 0:29
    e----------------------------
    b----------------------------
    g------9/10-9/10-9/10hold----
    d-9-9------------------------
    a-9-9------------------------
    e-7-7------------------------
    
    then this is played 4 times
    0:29 - 0:39
    e------------------------
    b------------------------
    g------------------------
    d-9-9-9-9-9----5-5-5-----
    a-9-9-9-9-9----5-5-5-----
    e-7-7-7-7-7--0-3-3-3-----
    
    then back to this 8 times
    0:39 - 0:54
    e----------------------------
    b----------------------------
    g------9/10-9/10-9/10hold----
    d-9-9------------------------
    a-9-9------------------------
    e-7-7------------------------
    
    then this is played 8 times
    0:54 - 1:11
    e------------------------
    b------------------------
    g------------------------
    d-9-9-9-9-9----5-5-5-----
    a-9-9-9-9-9----5-5-5-----
    e-7-7-7-7-7--0-3-3-3-----
    
    then play this once
    1:11 - 1:16
    e-----------------------------------
    g-----------------------------------
    b-----------------------------------
    d-14-14-14-14-14-12h14-12h14-12h14--
    a-14-14-14-14-14--------------------
    e-12-12-12-12-12--------------------
    
    thats all the guitar riffs and i cant be bothered writing the rest out because
    he playes them all again and i cant be bothered with time stamps and stuff, but
    its not hard...TRUST ME!
    
    DANIEL ALEXANDER REID
     

    Тональность:

    Нет текста!



    Назад
    Рекомендуем посмотреть другие песни исполнителя «Electric 6»:

    • Комментарии Facebook ()
    • Комментарии ВКонтакте



    Добавить в Избранное Браузера
    Сохранить здесь Очистить


    x

    0


    +
    -

    +
    -

    -

    Авторизация





    Зарегистрироваться

    M

    Дата и время

    • 19:33:45
       

    Социальные ссылки


    Наши приложения

    • Muzbank App Play Market
    • Muzbank Amazon App