MUZBANK



A Most Complete Bank Of Music Information

МУЗЫКАЛЬНО-ИНФОРМАЦИОННЫЙ БАНК

Поиск по сайту







    EElement Eighty • Pankcake Land (аккорды и текст - chords & lyrics)


    256

    Print

    Видео «Pankcake Land (Element Eighty)»

    Видео клипы к песне подбираются автоматически сайтом youtube. Возможны некоторые несоответствия клипов песне.

    ↑ Спрятать рекламу ↑



    Download


     
    
    
    Band:Element Eighty
    Song:Pancake Land
    Tab: BeechCraft_007
    Drop D Tuning
    
    Another one of my songs for my fav band E-80...just remember guys Derek is your true friend.
    
    This is the rhythem played throughout the song...
    -------------l---------------------------------------l
    -------------l---------------------------------------l
    -------------l---------------------------------------l
    -------------l---2---2---2---2---3---3---2---2---2---l
    -2-22-2-33-2-l-2---2---2---2---3---3---2---2---2---2-l
    -2-22-2-33-2-l-2---2---2---2---3---3---2---2---2---2-l
                   pm...................................
    
    Verse(let off of palm muting sometimes)
    -----------------------------------------l----------------------
    -----------------------------------------l----------------------
    -----------------------------------------l----------------------
    -----------------------------------------l----------------------
    -2-2-2-2-2-2-2-2-3-3-3-3-2-2-2-2-2-2-2-2-l-2-222-2-22-3-3-2-222-
    -2-2-2-2-2-2-2-2-3-3-3-3-2-2-2-2-2-2-2-2-l-2-222-2-22-3-3-2-222-
    pm..............................................................
    
    Course
    -------------
    -------------
    -------------
    -------------
    -2-22-2-33-2-
    -2-22-2-33-2-
    
    Interleude(having trouble...)x2
    --------------------------------------------------------------------l------------------
    --------------------------------------------------------------------l------------------
    --------------------------------------------------------------------l------------------
    --------------------------------------------------------------------l------------------
    -//15-14-15-14-15-14-15-14-15-14-15-15~~-3-2-3-2-3-2-3-2-3-2-3-3-33-l-15^^^^^^^^^^^^^^-
    -----------------------------------------3-2-3-2-3-2-3-2-3-2-3-3-33-l------------------
                                             pm.....................
    x2
    --------------------------------------------------l------------------------
    --------------------------------------------------l------------------------
    --------------------------------------------------l--------------------(3)-
    --------------------------------------------------l------------------------
    -000-2-000-2-0-2--000-2-000-2-0-2-000-2-000-2-0-2-l-00-00-00-000-2-0-2-----
    -000-2-000-2-0-2--000-2-000-2-0-2-000-2-000-2-0-2-l-00-00-00-000-2-0-2-----
     pm.   pm.  pm    pm.   pm.  pm   pm.   pm.  pm   pm pm pm pm.  pm
    
    ---------------------------------------------------------------
    ---------------------------------------------------------------
    ---------------------------------------------------------------
    ---------------------------------------------------------------
    -2-22-2-33-2-XX-2-22-2-33-2-XX-2-22-2-33-2-XX-2-22-2-33-2-XX-0-
    -2-22-2-33-2-XX-2-22-2-33-2-XX-2-22-2-33-2-XX-2-22-2-33-2-XX-0-
    
    -------------------------------------------------
    -------------------------------------------------
    -------------------2222------3333------2222------
    -------------------2222------3333------2222------
    -000-00-0000--0000------0000------0000------0000-
    -000-00-0000--0000------0000------0000------0000-
     

    Тональность:

    Нет текста!



    Назад
    Рекомендуем посмотреть другие песни исполнителя «Element Eighty»:

    • Комментарии Facebook ()
    • Комментарии ВКонтакте



    Добавить в Избранное Браузера
    Сохранить здесь Очистить


    x

    0


    +
    -

    +
    -

    -

    Авторизация





    Зарегистрироваться

    M

    Дата и время

    • 14:53:01
       

    Социальные ссылки


    Наши приложения

    • Muzbank App Play Market
    • Muzbank Amazon App