MUZBANK



A Most Complete Bank Of Music Information

МУЗЫКАЛЬНО-ИНФОРМАЦИОННЫЙ БАНК

Поиск по сайту







    EEminem • Lose Yourself (аккорды и текст - chords & lyrics)


    984

    Print

    Видео «Lose Yourself (Eminem)»

    Видео клипы к песне подбираются автоматически сайтом youtube. Возможны некоторые несоответствия клипов песне.

    ↑ Спрятать рекламу ↑



    Download



    intro
    |-5------5---3-----3---5-----------8--6--5---3-----|
    |---6----------5---------6-------------------------|
    |-----7----------5---------7-----------------------|
    |--------------------------------------------------|
    |--------------------------------------------------|
    |--------------------------------------------------|
    
    |-5-----5----3-----3---5----------------------------------------|
    |---6----------5---------6-------3------3--1--1--------------2--|
    |-----7----------5---------7-------3--0---------2------2--3-----|
    |-------------------------------------------------3-------------|
    |---------------------------------------------------------------|
    |---------------------------------------------------------------|
    
    Verse
    |-----------------------------|
    |-----------------------------|
    |-----------------------------|
    |--7777-xx-77-8888-xx-88-5-7--|
    |--5555-55-55-5555-55-55-5-5--|
    |-----------------------------|
    
    Intro to verse ; verse to chorus
    |------------------------|
    |------------------------|
    |------------------------|
    |---8--5--7-----8--5--7--|
    |---5--5--5-----5--5--5--|
    |------------------------|
    
    Chorus
    |---------------------------------|
    |---------------------------------|
    |---------------------------------|
    |--7777-xx-77-8888-10101010-5--7--|
    |--5555-55-55-5555-5-5-5-5--5--5--|
    |---------------------------------|
    

    Тональность:

    Нет текста!



    Назад
    Рекомендуем посмотреть другие песни исполнителя «Eminem»:

    • Комментарии Facebook ()
    • Комментарии ВКонтакте



    Добавить в Избранное Браузера
    Сохранить здесь Очистить


    x

    0


    +
    -

    +
    -

    -

    Авторизация





    Зарегистрироваться

    M

    Дата и время

    • 07:29:55
       

    Социальные ссылки


    Наши приложения

    • Muzbank App Play Market
    • Muzbank Amazon App